Song name
# A B C D E F G H I J K L M N O P Q R S T U V W X Y Z

Supercar - Storywriter tab

#----------------------------------PLEASE NOTE---------------------------------#
#This file is the author's own work and represents their interpretation of the #
#song. You may only use this file for private study, scholarship, or research. #
#------------------------------------------------------------------------------##

                                   STORYWRITER
                             As recorded by Supercar
                        (From the 2002 Album HIGHVISION)

Words by Junji Ishiwatar

Music by Koji Nakamura, Junji Ishiwatari, Miki Furukawa, Kodai Tazawa
Transcribed by IQC

Gtr I (E A D G B E) - 'Untitled'
Gtr II (E A D G B E) - 'Untitled'

 Intro (Starting at 0:36)
  Q=145
 4/4
  Gtr I
  PM|                             PM|
  E E H.        Wx2          H    E e Q    W
|-------------|------------|-------------|------|
|-------------|------------|-------------|------|
|-------------|------------|-------------|------|
|-7-7---------|------------|------7-7----|------|
|-7-7---------|------------|------7-7----|------|
|-5-5---------|------------|------5-5----|------|


                                             1.,2.
       PM
  H    S Q  E.   Wx3            E E H.        E E H.     3x
|--------------|------------||--------------|------------||
|--------------|------------||o-------------|-----------o||
|--------------|------------||--------------|------------||
|------7-------|------------||--7-7---------|-7-7--------||
|------7-------|------------||o-7-7---------|-7-7-------o||
|------5-------|------------||--5-5---------|-5-5--------||


  3.
 8/4                         4/4
             |-3-| |-3-|
  E E Q  E E q q q q q q Q    W
|---------------------------|------|
|---------------------------|------|
|---------------------------|------|
|-7-7----7---7-7-7-7-7-7----|------|
|-7-7----7---7-7-7-7-7-7----|------|
|-5-5----5---5-5-5-5-5-5----|------|


   Pre-Verse
    $
     E  E  E  E  E  E  E  E   E E  E  E  E  E  E  E
||--------------------------|-----------------------|
||o-------------------------|-----------------------|
||--------------------------|-----------------------|
||---7--7--7--7--7--7--7--7-|-7-7--7--7--7--7--7--7-|
||o--7--7--7--7--7--7--7--7-|-7-7--7--7--7--7--7--7-|
||---5--5--5--5--5--5--5--5-|-5-5--5--5--5--5--5--5-|
|
|   Gtr II
|    |3-|  |3-|  |3-|  |3-|   |3|  |3-|  |3-|  |3-|
|    Q  E  Q  E  Q  E  Q  E   Q E  Q  E  Q  E  Q  E
||--------------12-12-10-10-|-9-9-10-10-------------|
||o-10-10-12-12-------------|-----------12-12-12-12-|
||--------------------------|-----------------------|
||--------------------------|-----------------------|
||o-------------------------|-----------------------|
||--------------------------|-----------------------|


  E E  E  E  E  E  E  E   E E  E  E  E  E  E  E
|-----------------------|------------------------|
|-----------------------|------------------------|
|-----------------------|------------------------|
|-6-6--6--6--6--6--6--6-|-6-6--6--6--6--6--6--6--|
|-6-6--6--6--6--6--6--6-|-6-6--6--6--6--6--6--6--|
|-4-4--4--4--4--4--4--4-|-4-4--4--4--4--4--4--4--|
|
| |3|  |3-|  |3-|  |3-|   |3|  |3-|  |3-|  |3-|
| Q E  Q  E  Q  E  Q  E   Q E  Q  E  Q  E  Q  E
|-----------12-12-10-10-|-9-9-10-10--------------|
|-9-9-12-12-------------|-----------12-12-12-12--|
|-----------------------|------------------------|
|-----------------------|------------------------|
|-----------------------|------------------------|
|-----------------------|------------------------|


   E  E  E  E  E  E  E  E   E E  E  E  E  E  E  E
|-------------------------|-----------------------|
|-------------------------|-----------------------|
|-------------------------|-----------------------|
|--5--5--5--5--5--5--5--5-|-5-5--5--5--5--5--5--5-|
|--5--5--5--5--5--5--5--5-|-5-5--5--5--5--5--5--5-|
|--3--3--3--3--3--3--3--3-|-3-3--3--3--3--3--3--3-|
|
| Gtr II
|  |3-|  |3-|  |3-|  |3-|   |3|  |3-|  |3-|  |3-|
|  Q  E  Q  E  Q  E  Q  E   Q E  Q  E  Q  E  Q  E
|-------------12-12-10-10-|-9-9-10-10-------------|
|-------12-12-------------|-----------12-12-12-12-|
|-12-12-------------------|-----------------------|
|-------------------------|-----------------------|
|-------------------------|-----------------------|
|-------------------------|-----------------------|


   E  E  E  E E E  E  E    E  E   E  E E E E E
|-----------------------|-------------------------||
|-----------------------|------------------------o||
|-----------------------|-------------------------||
|--4--4--4--4-4-4--4--4-|--4--4---4--4-4-4-4-4----||
|--4--4--4--4-4-4--4--4-|--4--4---4--4-4-4-4-4---o||
|--2--2--2--2-2-2--2--2-|--2--2---2--2-2-2-2-2----||
|
|  |3-|  |3-| |3|  |3-|    |3-|
|  Q  E  Q  E Q E  Q  E    Q  E  +H.
|-------------9-9-12-12-|-12-12-(12)--------------||
|-------12-12-----------|------------------------o||
|-11-11-----------------|-------------------------||
|-----------------------|-------------------------||
|-----------------------|------------------------o||
|-----------------------|-------------------------||


   Verse
    PM------------------------------------------------------------------|
    E E E E E E E E   E E E E E E E E   E E E E E E E E   E E E E E E E E
||------------------|-----------------|-----------------|------------------|
||o-----------------|-----------------|-----------------|------------------|
||------------------|-----------------|-----------------|------------------|
||--7-7-7-7-7-7-7-7-|-7-7-7-7-7-7-7-7-|-6-6-6-6-6-6-6-6-|-6-6-6-6-6-6-6-6--|
||o-7-7-7-7-7-7-7-7-|-7-7-7-7-7-7-7-7-|-6-6-6-6-6-6-6-6-|-6-6-6-6-6-6-6-6--|
||--5-5-5-5-5-5-5-5-|-5-5-5-5-5-5-5-5-|-4-4-4-4-4-4-4-4-|-4-4-4-4-4-4-4-4--|


  PM------------------------------------------------------------------|
  E E E E E E E E   E E E E E E E E   E E E E E E E E   E E E E E E E E
|-----------------|-----------------|-----------------|------------------||
|-----------------|-----------------|-----------------|-----------------o||
|-----------------|-----------------|-----------------|------------------||
|-5-5-5-5-5-5-5-5-|-5-5-5-5-5-5-5-5-|-4-4-4-4-4-4-4-4-|-4-4-4-4-4-4-4-4--||
|-5-5-5-5-5-5-5-5-|-5-5-5-5-5-5-5-5-|-4-4-4-4-4-4-4-4-|-4-4-4-4-4-4-4-4-o||
|-3-3-3-3-3-3-3-3-|-3-3-3-3-3-3-3-3-|-2-2-2-2-2-2-2-2-|-2-2-2-2-2-2-2-2--||


   Chorus
    E E E E E E E E   E E E E E E E E   E E E E E E E E   E E E E E E E E
||------------------|-----------------|-----------------|-------------------||
||o-----------------|-----------------|-----------------|------------------o||
||------------------|-----------------|-----------------|-------------------||
||--9-9-9-9-9-9-9-9-|-9-9-9-9-9-9-9-9-|-7-7-7-7-7-7-7-7-|-7-7-7-7-7-7-7-7---||
||o-9-9-9-9-9-9-9-9-|-9-9-9-9-9-9-9-9-|-7-7-7-7-7-7-7-7-|-7-7-7-7-7-7-7-7--o||
||--7-7-7-7-7-7-7-7-|-7-7-7-7-7-7-7-7-|-5-5-5-5-5-5-5-5-|-5-5-5-5-5-5-5-5---||


  E E E E E E E E   E E E E E E E E   E E E E E E E E   E E E E E E E E
|-----------------|-----------------|-----------------|-----------------|
|-----------------|-----------------|-----------------|-----------------|
|-----------------|-----------------|-----------------|-----------------|
|-6-6-6-6-6-6-6-6-|-6-6-6-6-6-6-6-6-|-5-5-5-5-5-5-5-5-|-5-5-5-5-5-5-5-5-|
|-6-6-6-6-6-6-6-6-|-6-6-6-6-6-6-6-6-|-5-5-5-5-5-5-5-5-|-5-5-5-5-5-5-5-5-|
|-4-4-4-4-4-4-4-4-|-4-4-4-4-4-4-4-4-|-3-3-3-3-3-3-3-3-|-3-3-3-3-3-3-3-3-|


                                                                  D.S.
  E E E E E E E E   E E E E E E E E   E E E E E E E E   E E E E E E E E
|-----------------|-----------------|-----------------|-----------------|
|-----------------|-----------------|-----------------|-----------------|
|-----------------|-----------------|-----------------|-----------------|
|-4-4-4-4-4-4-4-4-|-4-4-4-4-4-4-4-4-|-2-2-2-2-2-2-2-2-|-2-2-2-2-2-2-2-2-|
|-4-4-4-4-4-4-4-4-|-4-4-4-4-4-4-4-4-|-2-2-2-2-2-2-2-2-|-2-2-2-2-2-2-2-2-|
|-2-2-2-2-2-2-2-2-|-2-2-2-2-2-2-2-2-|-0-0-0-0-0-0-0-0-|-0-0-0-0-0-0-0-0-|


  W          +W
|----------|--------|
|----------|--------|
|----------|--------|
|-7--------|-(7)----|
|-7--------|-(7)----|
|-5--------|-(5)----|


Duration Legend
---------------
W - whole; H - half; Q - quarter; E - 8th; S - 16th; T - 32nd; X - 64th; a - acciaccatura
+ - note tied to previous; . - note dotted; .. - note double dotted
Uncapitalized letters represent notes that are staccato (1/2 duration)
Irregular groupings are notated above the duration line
Duration letters will always appear directly above the note/fret number it represents the
duration for.  Duration letters with no fret number below them represent rests.  Multi-
bar rests are notated in the form Wxn, where n is the number of bars to rest for.  Low
melody durations appear below the staff

Tablature Legend
----------------
 h   - hammer-on
 p   - pull-off
 b   - bend
 pb  - pre-bend
 r   - bend release (if no number after the r, then release immediately)
 /\  - slide into or out of (from/to "nowhere")
 s   - legato slide
 S   - shift slide
  - natural harmonic
[n]  - artificial harmonic
n(n) - tapped harmonic
 ~   - vibrato
 tr  - trill
 T   - tap
 TP  - trem. picking
 PM  - palm muting
\n/  - tremolo bar dip; n = amount to dip
 \n  - tremolo bar down
 n/  - tremolo bar up
/n\  - tremolo bar inverted dip
 =   - hold bend; also acts as connecting device for hammers/pulls
 <>  - volume swell (louder/softer)
 x   - on rhythm slash represents muted slash
 o   - on rhythm slash represents single note slash

Misc Legend
-----------
 |  - bar
||  - double bar
||o - repeat start
o|| - repeat end
*|  - double bar (ending)
 :  - bar (freetime)
 $  - Segno
 &  - Coda
Tap to rate this tab
# A B C D E F G H I J K L M N O P Q R S T U V W X Y Z