Song name
# A B C D E F G H I J K L M N O P Q R S T U V W X Y Z

Superchick - With You tab

-----------------------------------------------------------------------------
			     WITH YOU - Superchick
-----------------------------------------------------------------------------
Tabbed by: Brian Burkard
Email: brianburkard@gmail.com

I played this at a friends wedding. The tab is not perfectly accurate, but it sounds 
pretty close. Listen to the song to get the rhythm right.

Tuning: Standard

(repeated riff)
e|-------------------------x------------------------x------|
B|-0--2--0---------------2-x----0-----2--0--------2-x------|
G|-------------------------x------------------------x------|
D|-0--2--0---------------2-x----0-----2--0--------2-x------|
A|-----------2----0--------x----------------0-------x------|
E|-------------------------x------------------------x------|

CHORUS

      E                                        A
Through it all I'll go down to the bottom with you

     E                                             A
They can take it all away But I'll be alright with you

  Bm
As long as you are by my side

         D
I'll be okay I'll be alright With you


Ending

e|-------------------------x------------------------x-----------------------|
B|-0--2--0---------------2-x----0-----2--0--------2-x-----------------------|
G|-------------------------x------------------------x-----------------------|
D|-0--2--0---------------2-x----0-----2--0--------2-x-----------------------|
A|-----------2----0--------x----------------0-------x-----------------------|
E|-------------------------x------------------------x-----------------------|

e|--------------------------x-----------------0......-----------------------|
B|-0--2--0---------------2--x---0-----2--0----2..... one slow Strum A chord-|
G|--------------------------x-----------------2....-------------------------|
D|-0--2--0---------------2--x---0-----2--0----2...--------------------------|
A|-----------2----0---------x-----------------0..---------------------------|
E|--------------------------x-----------------------------------------------|



************************************

| /   slide up
| \   slide down
| h   hammer-on
| p   pull-off
| ~   vibrato
| +   harmonic
| x   Mute note
| b   Bend
| pb  Pre-bend
| br  Bend release
| pbr Pre-bend release
| brb Bend release bend

************************************
Tap to rate this tab
# A B C D E F G H I J K L M N O P Q R S T U V W X Y Z