Song name
# A B C D E F G H I J K L M N O P Q R S T U V W X Y Z

Supergrass - Sad Girl tab

#----------------------------------PLEASE NOTE---------------------------------#
#This file is the author's own work and represents their interpretation of the #
#song. You may only use this file for private study, scholarship, or research. #
#------------------------------------------------------------------------------##
Date: Thursday 7 September 2006
From: Erik Koene (email at erik.nmgn@gmail.com)
Track: Sad Girl
Album: Road To Rouen (*2005)

Beautiful song... And yet no one tabbed it!
I'm not a great 'tabber', but I tried my very best on this :)(-> 45 minutes!)

Please also note: I've put the whole chorus under the C#m chord. Altough it sounds right 
playing along with the music, it gives the wrong effect when playing alone. I guess it 
a bit better on piano than on guitar...

Standard tuning (Eadgbe)

Chords used:
    G#   F#   D#   B   C#m   G#m   G
e|--4----2----3----2----4----4-----3--------------------------------------------|
B|--4----2----4----4----5----4-----3--------------------------------------------|
G|--5----3----3----4----6----4-----4--------------------------------------------|
D|--6----4----5----4----6----6-----5--------------------------------------------|
A|--6----4----6----2----4----6-----5--------------------------------------------|
E|--4----2----3----2----4----4-----3--------------------------------------------|

INTRO
*CHORDS [optional]
G# G# F# F# D# D# D# D#

*BASS
e|---------|
B|---------|
G|---------|
D|---------|
A|---------|
E|-4--2--3-| Play 2 times


VERSE 1
G# G# F#    F#   D#   D# D# D# D#
Honey found time costs
G#  G#    F#     F#  D# D#   D# D# D# D#
You never learnt to economise
D#   D#  B            G#   G#  G#   G# G# G#
You look around and before you know
     G#    F#     F# D#  D# D# D# D# D#
It's gone, turned to dust

CHORUS 1
*CHORDS
C#m
There she goes
Plays the part of sorrow
In the garden running free
Steady nerves, taking all the hard knocks
You've only got yourself
D#
Falling out of love
Making other plans

*GUITAR [small thingy]
e|-------------------------------|
B|-------------------------------|
G|----------6---4-1--------------|
D|-------------------------------|
A|-------------------------------|
E|-------------------------------| repeat after every sentence of the Chorus


VERSE 2

G# G# F#    F#   D#   D# D# D# D#
Lady knows how to go
G# G#  F#   F#   D# D#  D# D# D# D# D#
Making eyes in a photograph
D#  D#     B             G#    G#   G# G# G#
But we all know you're a lonely girl
G#G#F#  F#  D# D# D# D# D# D#
All sad and lost


CHORUS 2
*TABS
C#
There she goes
Walking out the front door
You've only got yourself in deep
Daily life driven to a cold heart
The only god you know is greed
D#
People in my head it goes

*GUITAR [small thingy]
e|-------------------------------|
B|-------------------------------|
G|----------6---4-1--------------|
D|-------------------------------|
A|-------------------------------|
E|-------------------------------| repeat after every sentence of the Chorus


BRIDGE

D#
Break out the band
G#m
Man over board
G#
See how it works
B
Running out of cash
D#
Get out of bed
G#m
Call off the dogs
G#
Take out the trash
B
Stay out the sun
D#
Man on the tracks
G#m
Cat out the bag
G#
Sit on the fence
B
You got blood on your hands
D#
Run out of luck
G#m
Lay down your arms
G#
Cut on your ...
G
And do it all again

VERSE 3

G#   F#      D#
Are times so lost
G#           F#        D#
You wear the look of a modern girl
D#         B            G#
You wander round like a loaded gun
G#    F#      D#
Armed for the cause

CHORUS 3 [end]
*CHORDS
C#
There she goes
Walking out the front door
You've only got yourself in deep
Lord knows I closed your eyes for so long
You're in the garden running free

*GUITAR [small thingy]
e|-------------------------------|
B|-------------------------------|
G|----------6---4-1--------------|
D|-------------------------------|
A|-------------------------------|
E|-------------------------------| repeat after every sentence of the Chorus, and then repeat till end.

Good luck! Say me thanks, send me corrections (altough I'm not registered here, so I 
edit them...) or whatever using the email adress above!
Tap to rate this tab
 
# A B C D E F G H I J K L M N O P Q R S T U V W X Y Z