Song name
# A B C D E F G H I J K L M N O P Q R S T U V W X Y Z

Superheist - Ghost tab

Help us improve GuitareTab! Take a short survey!
The Ghost
S U P E R H E I S T
Tabbed By Aaron Bridgeman (rokken@sicness.net)

http://bogans.arecool.net

TUNING: Drop D down 2 1/2 steps (A E A D F# b)

KEY:
~ = sustain note

INTRO 1:
b |------------------------------|
F#|------------------------------|
D |------------------------------|
A |------------------------------|
E |------------------------------|
A |-0-5-4-0-5-4-0-5-4-0-5-4------|

INTRO 2:
b |----------------------------|
F#|----------------------------|
D |----------------------------|
A |----------------------------|
E |-0-5-4-0-5-4-0-5-4-0-5-4-4~-|
A |-0-5-4-0-5-4-0-5-4-0-5-4-4~-|

CHORUS:
b |------------|
F#|------------|
D |-7--9--4--9-|
A |-x--x--x--x-|
E |-5--7--2--7-|
A |------------|

There you go!
Related for Ghost tab