Song name
# A B C D E F G H I J K L M N O P Q R S T U V W X Y Z

Superjesus - Let It Go tab

Help us improve GuitareTab! Take a short survey!
THE SUPERJESUS

Let It Go (by Jos Linford)

there's a fair bit going on with a couple of guitars clashing at times,
making the comprehension of both of them together, slightly difficult.
this version has been written to try and get the main parts of both :)
needless to say, some bits are a little wrong-ish!
rather tricky to play and sing together

(if anyone knows what the 2nd guitar is doing during the pre-chorus, i'd
love to hear from you - josiah17@hotmail.com)

drop D - capo on fret 4


Intro

e-------------------------------|
B-------------------------------|
G--4-x-4-4-4-x-4-4-4-x-4-4-4----|
D--4-x-4-4-4-x-4-4-4-x-4-4-4-7--|
A--2-x-2-2-2-x-2-2-2-x-2-2-2-7--|
D----------------------------7--|

Verse

e--------------------------------------------------------------|
B--------------------------------------------------------------|
G--4-x-4-4-4-x-4-4-4-x-4-4-4----4-x-4-4-4-x-4-4-4-x------------|
D--4-x-4-4-4-x-4-4-4-x-4-4-4-7--4-x-4-4-4-x-4-4-4-x-0-4-0-2-0--|
A--2-x-2-2-2-x-2-2-2-x-2-2-2-7--2-x-2-2-2-x-2-2-2-x-0-4-0-2-0--|
D----------------------------7----------------------0-4-0-2-0--| [x2]

Pre-bit

e--------------------------------------------------------------|
B--------------------------------------------------------------|
G--------------------------------------------------------------|
D--2------2-------2----------5------5-------5-5-5--------------|
A--2------2-------2----------5------5-------5-5-5--------------|
D--2-ring-2-chord-2----------5-ring-5-chord-5-5-5--------------|

..and now this territory's.. so unfamiliar..

Bit

e-------------------------------------|
B-------------------------------------|
G-------------------------------------|
D--7-7-7-7-7-7-2-0--[x3]-4b-0-4-0-2-0-|
A-------------------------------------|
D-------------------------------------|

Verse2

e--------------------------------------------------------------|
B--------------------------------------------------------------|
G--4-x-4-4-4-x-4-4-4-x-4-4-4----4-x-4-4-4-x-4-4-4-x------------|
D--4-x-4-4-4-x-4-4-4-x-4-4-4-7--4-x-4-4-4-x-4-4-4-x-0-4-0-2-0--|
A--2-x-2-2-2-x-2-2-2-x-2-2-2-7--2-x-2-2-2-x-2-2-2-x-0-4-0-2-0--|
D----------------------------7----------------------0-4-0-2-0--| [x2]

Pre-Chorus

e--------------------------------------------------------------|
B--------------------------------------------------------------|
G--------------------------------------------------------------|
D--2------2-------2----------5------5-------5-5-5--------------|
A--2------2-------2----------5------5-------5-5-5--------------|
D--2-ring-2-chord-2----------5-ring-5-chord-5-5-5--------------|

..and now this territory's.. so unfamiliar.. cos i could talk all

e---------------------------------------------------------------------|
B---------------------------------------------------------------------|
G--7-7-7-7-7-7-7-7-7-7-7-7-7-6-6-6-6-6-6-6-6-6-----------9-9-9-9-9h7--|
D--0-0-0-0-0-0-0-0-0-0-0-0-0-4-4-4-4-4-4-4-4-4-5-5-5-5-5-5-5-5-5-5-5--|
A--0-0-0-0-0-0-0-0-0-0-0-0-0-4-4-4-4-4-4-4-4-4-5-5-5-5-5-5-5-5-5-5-5--|
D--0-0-0-0-0-0-0-0-0-0-0-0-0-4-4-4-4-4-4-4-4-4-5-5-5-5-5-5-5-5-5-5-5--|

night and we could sink so low and i've been saving something more

e-----------------------------------|
B-----------------------------------|
G--4-4------------------------------|
D--4-4--7-7--2-2--5-5---------------|
A--2-2--7-7--2-2--5-5---------------|
D-------7-7--2-2--5-5-(ring chord)--|

and i'll never let it go... and i could talk all

e---------------------------------------------------------------------|
B---------------------------------------------------------------------|
G--7-7-7-7-7-7-7-7-7-7-7-7-7-6-6-6-6-6-6-6-6-6-----------9-9-9-9-9h7--|
D--0-0-0-0-0-0-0-0-0-0-0-0-0-4-4-4-4-4-4-4-4-4-5-5-5-5-5-5-5-5-5-5-5--|
A--0-0-0-0-0-0-0-0-0-0-0-0-0-4-4-4-4-4-4-4-4-4-5-5-5-5-5-5-5-5-5-5-5--|
D--0-0-0-0-0-0-0-0-0-0-0-0-0-4-4-4-4-4-4-4-4-4-5-5-5-5-5-5-5-5-5-5-5--|

night and it's the road we know and i've been saving something more

e----------------------------------|
B----------------------------------|
G--4-4-----------7-7---------------|
D--4-4--7-7--5-5-5-5---------------|
A--2-2--7-7--5-5-5-5---------------|
D-------7-7--5-5-5-5-(ring chord)--|

and i'll never let it go

Verse3

e--------------------------------------------------------------|
B--------------------------------------------------------------|
G--4-x-4-4-4-x-4-4-4-x-4-4-4----4-x-4-4-4-x-4-4-4-x------------|
D--4-x-4-4-4-x-4-4-4-x-4-4-4-7--4-x-4-4-4-x-4-4-4-x-0-4-0-2-0--|
A--2-x-2-2-2-x-2-2-2-x-2-2-2-7--2-x-2-2-2-x-2-2-2-x-0-4-0-2-0--|
D----------------------------7----------------------0-4-0-2-0--| [x2]

Pre-Chorus 2

e--------------------------------------------------------------|
B--------------------------------------------------------------|
G--------------------------------------------------------------|
D--2------2-------2----------5------5-------5-5-5--------------|
A--2------2-------2----------5------5-------5-5-5--------------|
D--2-ring-2-chord-2----------5-ring-5-chord-5-5-5--------------|

..and now this territory's.. so unfamiliar.. cos i could talk all

e---------------------------------------------------------------------|
B---------------------------------------------------------------------|
G--7-7-7-7-7-7-7-7-7-7-7-7-7-6-6-6-6-6-6-6-6-6-----------9-9-9-9-9h7--|
D--0-0-0-0-0-0-0-0-0-0-0-0-0-4-4-4-4-4-4-4-4-4-5-5-5-5-5-5-5-5-5-5-5--|
A--0-0-0-0-0-0-0-0-0-0-0-0-0-4-4-4-4-4-4-4-4-4-5-5-5-5-5-5-5-5-5-5-5--|
D--0-0-0-0-0-0-0-0-0-0-0-0-0-4-4-4-4-4-4-4-4-4-5-5-5-5-5-5-5-5-5-5-5--|

e-----------------------------------|
B-----------------------------------|
G--4-4------------------------------|
D--4-4--7-7--2-2--5-5---------------|
A--2-2--7-7--2-2--5-5---------------|
D-------7-7--2-2--5-5-(ring chord)--|

e---------------------------------------------------------------------|
B---------------------------------------------------------------------|
G--7-7-7-7-7-7-7-7-7-7-7-7-7-6-6-6-6-6-6-6-6-6-----------9-9-9-9-9h7--|
D--0-0-0-0-0-0-0-0-0-0-0-0-0-4-4-4-4-4-4-4-4-4-5-5-5-5-5-5-5-5-5-5-5--|
A--0-0-0-0-0-0-0-0-0-0-0-0-0-4-4-4-4-4-4-4-4-4-5-5-5-5-5-5-5-5-5-5-5--|
D--0-0-0-0-0-0-0-0-0-0-0-0-0-4-4-4-4-4-4-4-4-4-5-5-5-5-5-5-5-5-5-5-5--|

e----------------------------------|
B----------------------------------|
G--4-4-----------7-7---------------|
D--4-4--7-7--5-5-5-5---------------|
A--2-2--7-7--5-5-5-5---------------|
D-------7-7--5-5-5-5-(ring chord)--|

and i'll never let it go

Bridge (not too sure what both guitars are playing here but this bit plays hard and fast)

e-------------------------------------------------------|
B-------------------------------------------------------|
G--14-14-14-14-14-14-14-14-14--13-13-13-13-13-13-13-13--|
D---0--0--0--0--0--0--0--0--0---0--0--0--0--0--0--0--0--|
A-------------------------------------------------------|
D-------------------------------------------------------| [x4]

Last Chorus

e--------------------------------------------------------------------------|
B--------------------------------------5-5-5-5-5h3-------------------------|
G--7-7-5-4-[x4]--6-6-4-3-[x4]--------0--------------4-4--------------------|
D------------------------------0-5-5----------------4-4--7-7--2-2-2-2--5-5-|
A------------------------------0--------------------2-2--7-7--2-2-2-2--5-5-|
D--------------------------------------------------------7-7--2-2-2-2--5-5-|

e--------------------------------------------------------------------------|
B----------------------------------5-5-5-5-5h3-----------------------------|
G7-7-5-4-[x4]-6-6-4-3-[x4]-------0-------------4-4---------------4-4-------|
D--------------------------0-5-5---------------4-4--7-7--2-2-2-2-4-4-7-7--5|
A--------------------------0-------------------2-2--7-7--2-2-2-2-2-2-7-7--5|
D---------------------------------------------------7-7--2-2-2-2-----7-7--5|
Ring last fives out
End

e-------------------|
B-------------------|
G-------------------|
D--7-7-7-7-7-7-2-0--|
A-------------------|
D-------------------| [continue repeating, more rapidly, until end]

This was reposted on Ultimate-Guitar by Ben Pazolli of Perth, Western Australia 
| bpazolli@gmail.com)
This was done for the Superjesus Fans not for any personal gain. Email Me with changes 
the original poster (I really would like to hear from people)
Related for Let It Go tab