Song name
# A B C D E F G H I J K L M N O P Q R S T U V W X Y Z

Superman Is Dead - Nights Of The Lonely chords

A5 A5 C5 E5 A5 2X
A5 C5 D5 C5 D#5 D#5 D#5 D#5 D5
A5 C5 E5 A5 C5 D5 C5 D#5 D#5 D#5 D#5 D5

Tab1
e|---------------|
B|---------------|
C|-X-X--X-X-X-X--|
D|-X-X--X-X-X-X--|
A|-X-X--X-X-X-X--|
E|---------------|

A5          C5    E5
The moon is high, the fire burns...
A5          C5    E5
Is there heaven waits for me
A5          C5    E5
Ainít got no friends, just walk alone
A5          C5    E5
This lonely road will never ends...

*
D5     C5         B5         A5
Timeís slow, this paint grow so fast
D5           C5     B5
Keep running low to survive
A5    C5       E5    A5          C5      E5
Devil roll the dice, you know my time is up
A5    C5    E5         F5        G5            A5 C5 D5 C5
Angel by my side , she whisper this ainít right

D#5 D5 A5 C5 D5 C5 D#5 D#5 D#5 D#5 D5
Tab1

A5          C5    E5
The tide is high, dark water blues
A5          C5    E5
Drowned in this unforgiven sins...
A5          C5    E5
Tons of regrets and million tears 
A5          C5    E5
Until the day I disappear...

back to *

**
C5     G5              F5    C5
Lonely days and lonely nights
C5     G5              F5   C5
Give me something to believe
C5     G5              F5    C5
Let my faith gracefully arise
C5     G5              F5      B5 C5
And this hope for better day...

A5 C5 D5 C5 D#5 D5
A5 C5 D5 C5 D#5 D#5 D#5 D#5 D5

Solo Guitar
e|-------6----------------6---6--8~---|
B|-6-9-6---9-6-6~---9-6-9---9---------|
G|------------------------------------|
D|------------------------------------|
A|------------------------------------|
E|------------------------------------|


e|-9-9-9-8-6------9-9-9-8-6-----9-9-9-8-6-----9-9-9-8-6-------10--9-10-8-10-8-12---|
B|-----------9-6------------9-6-----------9-6-----------9-6---10-10-10-8--8-8-12---|
G|-------------------------------------------------------------9--9--9-9--9-9-13---|
D|---------------------------------------------------------------------------------|
A|---------------------------------------------------------------------------------|
E|---------------------------------------------------------------------------------|

back to *
back to **

ending:
C5     G5              F5    C5
Lonely days and lonely nights
C5     G5              F5   C5
Give me something to believe
C5     G5              F5    C5
Let my faith gracefully arise
C5     G5              F5      G5 B5 C5
And this hope for better day...

A5 C5 D5 C5 D#5 D5
A5 C5 D5 C5 D#5 D#5 D#5 D#5 D5


By WhO
Goffar
Tap to rate this tab
# A B C D E F G H I J K L M N O P Q R S T U V W X Y Z