Song name
# A B C D E F G H I J K L M N O P Q R S T U V W X Y Z

Superman Is Dead - Fly Away tab

Help us improve GuitareTab! Take a short survey!
Song 		: Fly Away
Artist 		: Superman Is Dead
Album 		: Angels and The OutSider
Tabbed By 	: afx
Email		: lord_afx@yahoo.com


VERSE
e|------------------------------------------------------------|
B|------------------------------------------------------------|
G|----------------7777777777777777-55555555-77777777----------|
D|-55555555555555-7777777777777777-55555555-77777777-55555555-|
A|-55555555555555-5555555555555555-33333333-55555555-55555555-|
E|-33333333333333------------------------------------33333333-|

e|-------------------------------------------------------------------|
B|-------------------------------------------------------------------|
G|----------------7777777777777777-55555555-77777777-----------------|
D|-55555555555555-7777777777777777-55555555-77777777-55555555-555555-|
A|-55555555555555-5555555555555555-33333333-55555555-55555555-555555-|
E|-33333333333333------------------------------------33333333-333333-|

CHORUS
e|---------------------------------|      e|----------------| 
B|---------------------------------|      B|----------------| 
G|-9-9-999-5-5-555---------7-7-777-|4X    G|-55555555-44444-| 
D|-9-9-999-5-5-555-5-5-555-7-7-777-|      D|-55555555-44444-| 
A|-7-7-777-3-3-333-5-5-555-5-5-555-|      A|-33333333-22222-| 
E|-----------------3-3-333---------|      E|----------------|

VERSE 2
e|-------------------------------------------------------------------|
B|-------------------------------------------------------------------|
G|----------------7777777777777777-55555555-77777777-----------------|
D|-55555555555555-7777777777777777-55555555-77777777-55555555-555555-|
A|-55555555555555-5555555555555555-33333333-55555555-55555555-555555-|
E|-33333333333333------------------------------------33333333-333333-|

sOLO GUITAR
e|--------------------------------------|
B|-----8----------8-/10----8-10-----8---|
G|-/7-9-97----/7-9-9-----9------7-9-----|
D|------------------------------------9-|
A|--------------------------------------|
E|--------------------------------------|

e|-/7----------/7------------------------------------|
B|----108---------108---------8-----10---------------|
G|-------9-----------97----/9--9-/11-11--------------|
D|--------9-----------------------------------9109---|
A|--------------------------------------11--------11-|
E|---------------------------------------------------|

VERSE 3
e|------------------------------------------------------------|
B|------------------------------------------------------------|
G|----------------7777777777777777-55555555-77777777----------|
D|-55555555555555-7777777777777777-55555555-77777777-55555555-|
A|-55555555555555-5555555555555555-33333333-55555555-55555555-|
E|-33333333333333------------------------------------33333333-|

e|-------------------------------------------------------------------|
B|-------------------------------------------------------------------|
G|----------------7777777777777777-55555555-77777777-----------------|
D|-55555555555555-7777777777777777-55555555-77777777-55555555-555555-|
A|-55555555555555-5555555555555555-33333333-55555555-55555555-555555-|
E|-33333333333333------------------------------------33333333-333333-|

CHORUS 2
e|---------------------------------|      e|---| 
B|---------------------------------|      B|---| 
G|-9-9-999-5-5-555---------7-7-777-|12X   G|-9-| 
D|-9-9-999-5-5-555-5-5-555-7-7-777-|      D|-9-| 
A|-7-7-777-3-3-333-5-5-555-5-5-555-|      A|-7-| 
E|-----------------3-3-333---------|      E|---|

Note:
Untuk kritik dan saran layankan ke e-mail lord_afx@yahoo.com
nantikan tab lagu-lagu punk karya anak bangsa

Cheers...!!!
afx-Nasumamata
Related for Fly Away tab