Guitaretab - guitar tabs
Song name
# A B C D E F G H I J K L M N O P Q R S T U V W X Y Z

Superman Is Dead - Graveyard Blues Vodkabilly tab

Title		: Graveyard Blues Vodkabilly 
Artist 		: Superman Is Dead
Album 		: Kuta Rock City
Tabbed by 	: yoos_yoes
Email		: yoos_yoes@yahoo.com

Fig1
e|--------------------------------------------------------------------------|
B|--------------------------------------------------------------------------|
G|--------------------------------------------------------------------------|
D|--x-x-5-8-7-5--x-x-5-8-7--x-x-5-8-7-5--5--x-x-5-8-7-5--5--x-x-5-8-7-5--5--|
A|--x-x-5-8-7-5--x-x-5-8-7--x-x-5-8-7-5--5--x-x-5-8-7-5--5--x-x-5-8-7-5--5--|
E|--x-x-3-6-5-3--x-x-3-6-5--x-x-3-6-5-3--3--x-x-3-6-5-3--3--x-x-3-6-5-3--3--|

e|------------------------------|
B|------------------------------|
G|--------7-7-7-5-5-5-3--3-3-3--|
D|--5-5-5-7-7-7-5-5-5-3--3-3-3--| 4x
A|--5-5-5-5-5-5-3-3-3-1--1-1-1--|
E|--3-3-3-----------------------|

e|----------------------------------------|
B|----------------------------------------|
G|----------------------------------------|
D|--5-5-3-5--5-5-8-5--5--5-5-5-5-5-5-5-5--|
A|--5-5-3-5--5-5-8-5--5--5-5-5-5-5-5-5-5--|
E|--3-3-1-3--3-3-6-3--3--3-3-3-3-3-3-3-3--|
				pm............

Fig2
e|---------------------------------------|
B|---------------------------------------|
G|---------------------------------------|
D|---------------------------------------| 2x
A|--------5-4-4-4-4---3-3-3-3------------|
E|--3-3-6-----------5---------5-6-5-3-1--|

e|-------------------------------------------|
B|-------------------------------------------|
G|-------------------------------------------|
D|------------5-5-5-5---4-4-4-4---3-3-3------| 2x
A|--3-3-3-3-6---------6---------6-------6-5--|
E|-------------------------------------------|

Fig3
e|--3--4--6-4-3-----3--4--6--8-11--|
B|---------------6-----------------|
G|---------------------------------|
D|---------------------------------|
A|---------------------------------|
E|---------------------------------|

Fig4
e|-----------------------------------------|
B|-----------------------------------------|
G|-----------------------------------------|
D|--5-5-3-5--5-5-3-5--5-5-3-5--5-5-8-5--5--|
A|--5-5-3-5--5-5-3-5--5-5-3-5--5-5-8-5--5--|
E|--3-3-1-3--3-3-1-3--3-3-1-3--3-3-6-3--3--|

Fig5
e|-----------------------------------------|
B|-----------------------------------------|
G|-----------------------------------------|
D|-----------------------------------------|
A|------------5-3---5-3-3-3-3-3---3-5------|
E|--3-3-3-6-3-----6-------------6-----6-3--|

Fig6
e|---------------------------------------------------------------------------|
B|---------------------------------------------------------------------------|
G|---------------------------------------------------------------------------|
D|---------------------------------------------------------------------------|
A|------------5-3---3-3/5-3--------3------------5-3---3-3/5-3--------3-------|
E|--\1-3--3-3-----6---------6-5-6----6-5-3--3-3-----6---------6-5-6----6-5---|
[ Tab from: http://www.guitaretab.com/s/superman-is-dead/92648.html ]
e|-------------------------------------------------------------|
B|-------------------------------------------------------------|
G|----------------5--5-5-7-7-7-7---------------8--8-8-7-7-7-7--|
D|--5--5-3-5--5-3-5--5-5-7-7-7-7-5--5-3-5--5-3-8--8-8-7-7-7-7--|
A|--5--5-3-5--5-3-3--3-3-5-5-5-5-5--5-3-5--5-3-6--6-6-5-5-5-5--|
E|--3--3-1-3--3-1----------------3--3-1-3--3-1-----------------|

Fig7
e|---------18-------------------------------18-----------|
B|--19--19----19----19-------------------19----19----19--|
G|---------------18--------15-----15--------------18-----|
D|----------------------16----16-----16------------------|
A|-------------------------------------------------------|
E|-------------------------------------------------------|

Fig8
e|----------------------------------------------------------------------------------------|
B|----------------------------------------------------------------------------------------|
G|--------------------------------------------------2-2-2-3-3-3-3-3-3-2-2-2--------2-2-2--|
D|----------------------------3-5-3-----------3-3-3-------------------------6-6-6---------|
A|----------3-5-3-----3-3-3-6-------6-3-5-5-5---------------------------------------------|
E|--3-3-3-6-------6-3---------------------------------------------------------------------|

Fig9
e|-----------------------------------------------------------|
B|-----------------------------------------------------------|
G|----------------------3---3h5p3---3-5-5-5-3---3-5-3-5p3----|
D|------3---3h5p3---------5-------5-----------5-----------5--|
A|--------5-------5-3-3--------------------------------------|
E|--3-3------------------------------------------------------|

e|---------------------------------------------------------------|
B|---------------------------------------------------------------|
G|--3h5p3---3-3h5p3---3-3h5p3---3-3h5p3---3-5-5-5-3---3-5-5p3----|
D|--------5---------5---------5---------5-----------5---------5--|
A|---------------------------------------------------------------|
E|---------------------------------------------------------------|





Fig1
Fig2 2x
Fig3
Fig2 2x
Fig3
Fig4

One Two One Two Three Four
Play at G5

Fig5 4x

G5				D#5			D5
Malam, gelap dingin mencekam Kesepian seakan ingin berontak
G5					D#5		D5
Bayangan merah dia tlah dating Belati menancap keras di dada 
G5					D#5			D5
Telah habis vodka di tangan kanan Dan kusuka dengar suara botol pecah
G5 					D#5			D5
Hilanglah semua teman tercinta Tinggalkanku dengan hati yang patah
C5	D5 
Hahaha, aku tertawa
C5	D5 
Sudahlah, setan pun tersenyum 
C5	D5			D#5	D5
Melihat, apa yang telah kulakukan
D#5	D5		D#5		E5 
Terlambat,tangan ku tlah berlumur darah 
 
Fig5 2x

G5					D#5			D5
Ku bersumpah tuk jadi lebih baik Tapi ruang dan waktu tak membantu
G5					D#5		D5 
Ke hembus asap rokok terakhir Api ini tak akan pernah padam
G5					D#5		D5 
Nekat ku kebut motor setanku berharap inilah saat tuk berucap
G5				D#5			D5 
Selamat tinggal kekecewaan Tapi hati ini masih tak yakin 
C5	D5 
Hahaha, aku tertawa
C5	D5 
Sudahlah, setan pun tersenyum 
C5	D5			D#5	D5
Melihat, apa yang telah kulakukan
D#5	D5		D#5		E5	G5
hampir saja berakhir nafas hidupku

Fig6

Persetan dengan kepalsuan 
Persetan dengan kemurnian
G5 
Kusadari semua 
Dalam hidup ini 
Kau hanya dapatkan 
/pick
Apa yang kau berikan

G5 C5 D5  G5 D#5 D5  2X
Fig7
Fig8 4x
Fig9


THat's all
Buat aldi anto
Mending ngajarin lo langsung deh drpd nulis tabnya hehehe...

Related for Graveyard Blues Vodkabilly tab
Graveyard Blues Vodkabilly chords by Superman Is Dead