Song name
# A B C D E F G H I J K L M N O P Q R S T U V W X Y Z

Supersuckers - Poor Girl tab

Help us improve GuitareTab! Take a short survey!
Author/Artist: Eddie Vedder & The Superfuckers
Title: Poor Girl
Album: X Tribute


-|--------------3--3--3--3----------------------------------------------------|
-|--------------3--3--3--3----------------------------------------------------|
-|--5--4--2-----4--4--4--4----------------------------------------------------|
-|--5--4--2--5--5--5--5--5----------------------------------------------------|
-|--3--2--0--5--5--5--5--5----------------------------------------------------|
-|-----------3--3--3--3--3----------------------------------------------------|
Intro and 1st part  Hold the G for a while

-|----------------------------------------------------------------------------|
-|----------------------------------------------------------------------------|
-|--4s5-5-5-5-5---4s5-5-5-5-5---4s5-5-5-5-5---7-7-7-7-7-7-7-------------------|
-|--4s5-5-5-5-5---4s5-5-5-5-5---4s5-5-5-5-5---7-7-7-7-7-7-7-------------------|
-|--2s3-3-3-3-3---2s3-3-3-3-3---2s3-3-3-3-3---5-5-5-5-5-5-5-------------------|
-|----------------------------------------------------------------------------|
then "Again.... take what she? gives u...."

-|--------------3--3--3--3----------------------------------------------------|
-|--------------3--3--3--3----------------------------------------------------|
-|--5--4--2-----4--4--4--4----------------------------------------------------|
-|--5--4--2--5--5--5--5--5----------------------------------------------------|
-|--3--2--0--5--5--5--5--5----------------------------------------------------|
-|-----------3--3--3--3--3----------------------------------------------------|
Then Hold the G for a while

-|----------------------------------------------------------------------------|
-|----------------------------------------------------------------------------|
-|--4s5-5-5-5-5---4s5-5-5-5-5---4s5-5-5-5-5---7-7-7-7-7-7-7-------------------|
-|--4s5-5-5-5-5---4s5-5-5-5-5---4s5-5-5-5-5---7-7-7-7-7-7-7-------------------|
-|--2s3-3-3-3-3---2s3-3-3-3-3---2s3-3-3-3-3---5-5-5-5-5-5-5-------------------|
-|----------------------------------------------------------------------------|
then "For u.... take what she? gives u...."

-|----------------------------------------------------------------------------|
-|----------------------------------------------------------------------------|
-|--------------7-7-7-7-7---9-9-9-9-9---5-5-5-5-5\----------------------------|
-|--5-5-5-5-5---7-7-7-7-7---9-9-9-9-9---5-5-5-5-5\----------------------------|
-|--5-5-5-5-5---5-5-5-5-5---7-7-7-7-7---3-3-3-3-3\----------------------------|
-|--3-3-3-3-3-----------------------------------------------------------------|
Chorus "Poor little girl..."

-|----------------------------------------------------------------------------|
-|----------------------------------------------------------------------------|
-|--------------7-7-7-7-7---------------7-7-7-7-7-----------------------------|
-|--5-5-5-5-5---7-7-7-7-7---5-5-5-5-5---7-7-7-7-7-----------------------------|
-|--5-5-5-5-5---5-5-5-5-5---5-5-5-5-5---5-5-5-5-5-----------------------------|
-|--3-3-3-3-3---------------3-3-3-3-3-----------------------------------------|
Then "She holds? a ... car???"

-|--------------3--3--3--3----------------------------------------------------|
-|--------------3--3--3--3----------------------------------------------------|
-|--5--4--2-----4--4--4--4----------------------------------------------------|
-|--5--4--2--5--5--5--5--5----------------------------------------------------|
-|--3--2--0--5--5--5--5--5----------------------------------------------------|
-|-----------3--3--3--3--3----------------------------------------------------|
"Aloneeeeee....When u ran out..." Hold the G for a while

-|----------------------------------------------------------------------------|
-|----------------------------------------------------------------------------|
-|--4s5-5-5-5-5---4s5-5-5-5-5---4s5-5-5-5-5---7-7-7-7-7-7-7-------------------|
-|--4s5-5-5-5-5---4s5-5-5-5-5---4s5-5-5-5-5---7-7-7-7-7-7-7-------------------|
-|--2s3-3-3-3-3---2s3-3-3-3-3---2s3-3-3-3-3---5-5-5-5-5-5-5-------------------|
-|----------------------------------------------------------------------------|
then "Right..... take what she? gives u...."

-|----------------------------------------------------------------------------|
-|----------------------------------------------------------------------------|
-|--------------7-7-7-7-7---9-9-9-9-9---5-5-5-5-5\----------------------------|
-|--5-5-5-5-5---7-7-7-7-7---9-9-9-9-9---5-5-5-5-5\----------------------------|
-|--5-5-5-5-5---5-5-5-5-5---7-7-7-7-7---3-3-3-3-3\----------------------------|
-|--3-3-3-3-3-----------------------------------------------------------------|
Chorus "Poor little girl..."

-|----------------------------------------------------------------------------|
-|----------------------------------------------------------------------------|
-|--------------7-7-7-7-7---------------7-7-7-7-7-----------------------------|
-|--5-5-5-5-5---7-7-7-7-7---5-5-5-5-5---7-7-7-7-7-----------------------------|
-|--5-5-5-5-5---5-5-5-5-5---5-5-5-5-5---5-5-5-5-5-----------------------------|
-|--3-3-3-3-3---------------3-3-3-3-3-----------------------------------------|
Then "She holds? a ... car???"

-|--------------3--3--3--3----------------------------------------------------|
-|--------------3--3--3--3----------------------------------------------------|
-|--5--4--2-----4--4--4--4----------------------------------------------------|
-|--5--4--2--5--5--5--5--5----------------------------------------------------|
-|--3--2--0--5--5--5--5--5----------------------------------------------------|
-|-----------3--3--3--3--3----------------------------------------------------|
Then 2X and its the end of this cool song (Hold the G for a while).
Related for Poor Girl tab