Song name
# A B C D E F G H I J K L M N O P Q R S T U V W X Y Z

Supersuckers - Bubblegum And Beer tab

standard tuning, tabbed from the version recorded on the album "Live at the Magic Bag, Ferndale, MI"

i'm not even going to attempt to tab the solo, too much distortion on this version

3rd verse there's no guitar

x - palm mute

main riff, intro + verses + chorus
e|----------------------------------------------------------|
B|----------------------------------------------------------|
G|-----------------------------6-6---6-6-6-6----------------|
D|-6-6---6-6-6-6-4-4---4-4-4-4-6-6---6-6-6-6-6-6---6-6-6-6--|
A|-6-6---6-6-6-6-4-4---4-4-4-4-4-4---4-4-4-4-6-6---6-6-6-6--|
E|-4-4---4-4-4-4-2-2---2-2-2-2---------------4-4---4-4-4-4--|

prechorus? hard to tell
e|------------------------------------------------------------------|
B|------------------------------------------------------------------|
G|-3-3---x-x-3-x-3-6-6---x-x-6-x-6----------------------------------|
D|-3-3---x-x-3-x-3-6-6---x-x-6-x-6-6-6---x-x-6-x-6-3-3---x-x-3-x-3--|
A|-1-1---x-x-1-x-1-4-4---x-x-4--x4-6-6---x-x-6-x-6-3-3---x-x-3-x-3--|
E|---------------------------------4-4---x-x-4-x-4-1-1---x-x-1-x-1--|
Tap to rate this tab
 
# A B C D E F G H I J K L M N O P Q R S T U V W X Y Z