Song name
# A B C D E F G H I J K L M N O P Q R S T U V W X Y Z

Supertones - Unite tab

----------------------------------------------------------------------------
			     UNITE - The O.C. Supertones
----------------------------------------------------------------------------
Tabbed by: No 1
Tuning: Standard (EADGBe)
Key: A#
Notes: It's a pretty easy song, and I'm pretty sure this is 100% correct

Intro (Clean)
e|--------------------------------------------------------|
B|--------------------------------------------------------|
G|-3-3-x-6---3-3-x-------3-3-3-xxx-6---3-3-3--------------|
D|-3-3-x-6---3-3-x-6-7---3-3-3-xxx-6---3-3-3-6------------|
A|-1-1-x-4---1-1-x-6-7---1-1-1-xxx-4---1-1-1-6------------|
E|-----------------4-5-----------------------4------------|
                                               "Bring it!"

Main Riff (Distortion)
e|---------------------------------------------------|  
B|---------------------------------------------------|    
G|-------------6-6-6-6-6-6---------------------------|
D|-8-8-8-8-8-8-6-6-6-6-6-6-8-8-8-8-8-8-6-6-6-6-6-6---|X4 End on F 
A|-8-8-8-8-8-8-4-4-4-4-4-4-8-8-8-8-8-8-6-6-6-6-6-6---|   fourth time
E|-6-6-6-6-6-6-------------6-6-6-6-6-6-4-4-4-4-4-4---|


Main Riff Fill (Distortion) 
e|----------------------|
B|---6-----6-----6------|  When playing the G# chord in the main  
G|---8b10--8b10--8b10---| riff the 2nd time, a second guitar plays
D|----------------------|          this quick little fill
A|----------------------|
E|----------------------|


Verse (Clean) 
e|--------------------------|
B|--------------------------|
G|--------------------------|
D|-8---8-8-8---6---6-6-6----|
A|-8---8-8-8---6---6-6-6----|
E|-6---6-6-6---4---4-4-4----|


Chorus (Distortion)
e|-------------------------------------------|
B|-------------------------------------------|
G|---------8-8-8-8-------------10-10-10-10---|
D|-8-8-8-8-8-8-8-8-10-10-10-10-10-10-10-10---|X4 ---> Back to Main Riff, 
A|-8-8-8-8-6-6-6-6-10-10-10-10-8--8--8--8----|          Verse, Chorus  
E|-6-6-6-6---------8--8--8--8----------------|


Bridge (Clean)
e|-------------------------------------------------|
B|-------------------------------------------------|
G|-------------------------------------------------|
D|-----------------1-------------------------------|X2
A|-1-1-1-1---1-------------1-1-1---1-4-4-4-4-3-----|
E|---------1---4-4---4-----------1-------------4---|


Outro (Distortion)
e|-------------------------------------------------|
B|-------------------------------------------------|
G|-3-3-3-3---3-----8-------3-3-3---3-6-6-6-6-5-----|
D|-3-3-3-3-3-3-6-6-8-6-----3-3-3-3-3-6-6-6-6-5-6---|X4 ---> End on A#
A|-1-1-1-1-3-1-6-6-6-6-----1-1-1-3-1-4-4-4-4-3-6---|
E|---------1---4-4---4-----------1-------------4---|


| /  slide up                       
| \  slide down
| h  hammer-on
| p  pull-off
| ~  vibrato
| +  harmonic
| x  Mute note
============================================================================
Tap to rate this tab
# A B C D E F G H I J K L M N O P Q R S T U V W X Y Z