Song name
# A B C D E F G H I J K L M N O P Q R S T U V W X Y Z

Surfaris - Wipe Out tab

------------------------
			     Wipe out- the surfaris
-------------------------------------------------------------------------------
Tabbed by:lbc_sublime
Email:

Tuning:EBGDAE

I saw the rest had like 4 stars or what ever this one should be pretty much perfect. It 
a 4/4 time signature

Verse

e|-----------------------------------------------------|
B|-----------------------------------------------------|
G|-----3--4--5-----5--3--------3--4--5----5--3--------3|
D|--5--------------------5--5-------------------5--5---|
A|-----------------------------------------------------|
E|-----------------------------------------------------|
 W reverb


e|-----------------------------------------------------|
B|-----------------------------------------------4--5--|
G|--4--5--5--5--3--------3--4--5--5--5--3-----5--------|
D|-----------------5--5--------------------5-----------|
A|-----------------------------------------------------|
E|-----------------------------------------------------|

e|-----------------------------------------------------|
B|--6--6--6--4-------4--5--6--6--6--4------------------|
G|--------------5----------------------5-----3--4--5--5|
D|----------------------------------------5------------|
A|-----------------------------------------------------|
E|-----------------------------------------------------|

e|-----------------------------------------------------|
B|--------------------------------------4--6---/8--8--8|
G|--5--3--------3--4--5--5--5--3-----------------------|
D|--------5--5--------------------5--------------------|
A|-----------------------------------3-----------------|
E|-----------------------------------------------------|


e|-----------------------------------------------------|
B|--6--------8--6--6--6--4-----------------------------|
G|-----7--7-----------------5-----3--4--5----5--3------|
D|-----------------------------5-------------------5--5|
A|-----------------------------------------------------|
E|-----------------------------------------------------|

e|-----------------------------------------------------|
B|-----------------------------------------------------|
G|--5--3------------------------4----------------------|
D|--------5--5--5--5------5--5--5----------------------|
A|-----------------------------------------------------|
E|-----------------------------------------------------|

Interlude

  C                C             F
e|-8----------------8-------------1-----------------------|
B|-8----------------8-------------1-----------------------|
G|-9----------------9-------------2-----------------------|
D|-10---------------10------------3-----------------------|
A|--------------------------------------------------------|
E|--------------------------------------------------------|
  Hold for 8 beats  hold 8 beats  hold 8 beats


  C             G             F            c
e|8-------------3-------------1------------8-----------|
B|8-------------3-------------1------------8-----------|
G|9-------------4-------------2------------9-----------|
D|10------------5-------------3------------10----------|
A|-----------------------------------------------------|
E|-----------------------------------------------------|
 Hold 8 beats   hold 4 beats  hold 4 beats hold 6 beats

e|-----------------------------------------------------|
B|-----------------------------------------------------|
G|-----3--4--------------------------------------------|
D|--5--------------------------------------------------|
A|-----------------------------------------------------|
E|-----------------------------------------------------|


SOLO

e|-----/8--8--8------------------8--8--8---11^----8--8-|
B|-----/8--8--8--11^----11--8----8--8--8---11^----8--8-|
G|-----------------------------------------------------|
D|-----------------------------------------------------|
A|-----------------------------------------------------|
E|-----------------------------------------------------|

e|--8--8--8--8----8----8--8--8--11--8----8----8--8--8--|
B|--8--8--8--8----8----8--8--8--11--8----8----8--8--8--|
G|-----------------------------------------------------|
D|-----------------------------------------------------|
A|-----------------------------------------------------|
E|-----------------------------------------------------|

e|--8--8\----1--1--1-----------------------------------|
B|--8--8\----1--1--1--4--1--1--1--1--1--4^----1---4/---|
G|-----------------------------------------------------|
D|-----------------------------------------------------|
A|-----------------------------------------------------|
E|-----------------------------------------------------|


e|--/8--8--8--8---------8------8--8--8----8--8\----3--3|
B|--/8--8--8--8--11^----8------8--8--8----8--8\----3--3|
G|-----------------------------------------------------|
D|-----------------------------------------------------|
A|-----------------------------------------------------|
E|-----------------------------------------------------|

e|--3--3--5--3--3----1--1--1--1---------------8--8--8--|
B|--3--3--5--3--3----1--1--1--1--4^--1--1--1--8--8--8--|
G|-----------------------------------------------------|
D|-----------------------------------------------------|
A|-----------------------------------------------------|
E|-----------------------------------------------------|


e|--8--------8-----------------------------------------|
B|--8---11^-----8--------------------------------------|
G|-----------------------------------------------------|
D|-----------------------------------------------------|
A|-----------------------------------------------------|
E|-----------------------------------------------------|

| ^  bend
| /  slide up
| \  slide down
| h  hammer-on
| p  pull-off
| ~  vibrato
| +  harmonic
| x  Mute note
===============================================================================
Tap to rate this tab
# A B C D E F G H I J K L M N O P Q R S T U V W X Y Z