Song name
# A B C D E F G H I J K L M N O P Q R S T U V W X Y Z

Svafnir - The Mourning Forest tab

-----------------------------------------------------------------------------
                        The Mourning Forest by Svafnir
-----------------------------------------------------------------------------

Tuning: Dropped D (DADGBe)

Tabbed out by ear so there's BOUND to be some mistakes, if you notice any errors 
right off the bat, check at the bottom so if it it was 
addressed. If not, shoot me an email at r_ant@live.com.


Guitar I:
e|----------------------------------------------------------------------------|
B|--3-----4p3--3--------3----------------4-----6p4--4--------3--------3-------|
G|-----3----------3--------3/5--2-----3-----5----------5--------3--------2----|
D|-------------------5-------------3----------------------5--------5--------4-|
A|----------------------------------------------------------------------------|
D|--5----------5--------1-------1--------3----------3--------5--------0-------|



Guitar II: (2:15-3:02)
e|-----------------------------------------------------------------------------------------------|
B|-------------------------3--4--6--4--3-------------------------------------------/4--3---------|
G|----2--3--5--3--2--3--5-----------------3--5--2--3--------2--3--5--3--2--3----5---------5--3--4|
D|--5-------------------------------------------------5--5---------------------------------------|
A|-----------------------------------------------------------------------------------------------|
D|-----------------------------------------------------------------------------------------------|
                                                                                          (Repeat)
 



*Notes:
- If playing the bottom "bass" line of guitar one is too difficult, just make it 
into another separate guitar part for a total of 3 guitars.
- The tuning to this song is only noticeably slightly off if you play along with 
the song. Every note is really a 1/4 step up, and there's 
not really an easy set tuning for that, so I suggest using dropped D, it sounds 
the same if you don't play along with the song 

Website: http://www.metal-archives.com/bands/Svafnir/45454
Tap to rate this tab
# A B C D E F G H I J K L M N O P Q R S T U V W X Y Z