Svartsot - Grendel tab

Grendel by Svartsot
Tabbed by Matt Secker
Tuning: D, A, D, G, B, E

These are the guitar parts played throughout the song but you can piece together when 
come in and
there's also some pinch harmonics played every now and then but they're not to hard to 
out yourself either.

----------------------------------------------------------------------------

E|--------------------------------------------------|
B|-4-5-5-4-5------------------------------5-5-4-----|
G|-----------4-4-5-4---------------2-4--4-------4-4-|
D|-------------------5-2--2-4-5--5------------------|
A|--------------------------------------------------|
E|--------------------------------------------------|

E|------------------------------------------------------|
B|---4-5-5-4-5------------------------------------------|
G|-4-----------4-4-5-4---------------2-4--4-2-----------|
D|---------------------5-2--2-4-5--5----------5-4-2-1-2-|
A|------------------------------------------------------|
E|------------------------------------------------------|

----------------------------------------------------------------------------

E|-----------------------------------------------------------------|
B|-----------------------------------------------------------------|
G|------------------------------------4--------------------5-4-----|
D|-222--222--222-------222--222--222--4--------------------5-4-5-7-|
A|-222--222--222--2----222--222--222--2---222-222-222--2---3-2-5-7-|
D|-222--222--222---5---222--222--222------222-222-222---5------5-5-|
   ...  ...  ...       ...  ...  ...      ... ... ...

E|-------------------------------------------------------------------|
B|-------------------------------------------------------------------|
G|------------------------------------4--------------------5-4-------|
D|-222--222--222-------222--222--222--4--------------------5-4-5-7-0-|
A|-222--222--222--2----222--222--222--2---222-222-222--2---3-2-5-7-0-|
D|-222--222--222---5---222--222--222------222-222-222---5------5-5-0-|
   ...  ...  ...       ...  ...  ...      ... ... ...

----------------------------------------------------------------------------
Tap to rate this tab
 
# A B C D E F G H I J K L M N O P Q R S T U V W X Y Z