Song name
# A B C D E F G H I J K L M N O P Q R S T U V W X Y Z

Swans - New Mind tab

-------------------------------------------------------------------------------
			     NEW MIND - Swans
-------------------------------------------------------------------------------
Tabbed by: openless

Tuning: Standard

Most of this song is one riff. This is the Children Of God version.

e|---------------------------------------------------------------------------|
B|---------------------------------------------------------------------------|
G|------5------------------------------------------5---5--5------------------|
D|------5--And sometimes mix it up with this..---- 5---5--5------------------|
A|--7-7----------------------------------------7-7---7---7-------------------|
E|--7-7----------------------------------------7 7---7---7-------------------|

The "Damn you to hell" part and outro repeat this pleasant-sounding chord over and over
e|---------------------------------------------------------------------------|
B|---------------------------------------------------------------------------|
G|---------------------------------------------------------------------------|
D|-8-------------------------------------------------------------------------|
A|-7-------------------------------------------------------------------------|
E|-6-------------------------------------------------------------------------|


| /  slide up
| \  slide down
| h  hammer-on
| p  pull-off
| ~  vibrato
| +  harmonic
| x  Mute note
===============================================================================
Tap to rate this tab
# A B C D E F G H I J K L M N O P Q R S T U V W X Y Z