Song name
# A B C D E F G H I J K L M N O P Q R S T U V W X Y Z

Swans - Failure tab

-------------------------------------------------------------------------------
			     FAILURE - Swans
-------------------------------------------------------------------------------
Tabbed by: openless

Tuning: Drop D

The verse is this played soft and bluesy. The song layers all the background parts throughout
gradually.
e|----------|
B|----------|
G|----------|
D|----------|
A|----------|
D|-0-0-3-3--|

This part is played softly during the verses. Also serves as the outro.
e|---------------|
B|---------------|
G|----2-----2----|
D|------2-----2--|
A|--0-----0------|
D|---------------|

Another verse background part. I believe it's a keyboard.
e|--------|
B|--------|
G|--------|
D|--------|
A|--------|
D|-5-7----|

Yet another verse background part.
e|-8------|
B|---6----|
G|-----9--|
D|--------|
A|--------|
D|--------|

Chorus (12 string?)
   C           Bb          A
e|----------------------------|
B|---5---6---5-- 5---6---5----|
G|-5---5---5---3---3---3---2--|
D|----------------------------|
A|----------------------------|
D|----------------------------|


| /  slide up
| \  slide down
| h  hammer-on
| p  pull-off
| ~  vibrato
| +  harmonic
| x  Mute note
===============================================================================
Tap to rate this tab
 
# A B C D E F G H I J K L M N O P Q R S T U V W X Y Z