Song name
# A B C D E F G H I J K L M N O P Q R S T U V W X Y Z

Swans - Cant Find My Way Home tab

                             CAN'T FIND MY WAY HOME
                              As recorded by Swans
                     (From the 1989 Album GOD DAMN THE SUN)

Transcribed + Arranged by Corey Hunter


* www.gsog.com.au
* www.youtube.com/twinofcocteau



    D5/C                  G/B               Dadd4/Bb               D5/A
 x 3 0 2 3 x          x 2 0 0 0 3          x 1 0 0 3 2          x 0 0 2 3 x

    G5/F                   G                    D
 1 x 0 0 3 x          3 x 0 0 0 3          x x 0 2 3 2

   Intro And Verse riff
   4/4
    Gtr I
    S S S S +S  S S S S S S S +S  S S S   S S S S S S S S S S S S +S  S S S
||--------------------------3-(3)-0-----|-------2---------------------------|
||o-------3-(3)-------------------------|-----------3-----------3-(3)-------|
||----2---------2---0---0-------------0-|---0-----------0---2---------2---0-|
||------0---------0-------0---------0---|-----0---0---0-------0---------0---|
||o-3-----------------2-----------------|-1---------------0-----------------|
||--------------------------------------|-----------------------------------|


  S S S S S S S S S S S S +S  S S S   S S S S +S  S S S +S  S S S +S  S E
|-----------------------3-(3)-------|-------2-(2)-----2-(2)-----2-(2)------||
|-------3---------------------------|---3---------3---------3---------3---o||
|---0-------0---0---0---------0---0-|-----2---------2---------2------------||
|-----0---0---0-------0---------0---|-0---------------------------------0--||
|-----------------------------------|-------------------------------------o||
|-1---------------3-----------------|--------------------------------------||



Chorus (Chords)  * Try employing sus2 and 4 variations in the bars containing D
                   Listen to the recording to hear how they work.
                   


   G              Em             D              Em
|  /  /  /  /  |  /  /  /  /  |  /  /  /  /  |  /  /  /  /  |


   G     F  Em    D     
|  /  /  /  /  |  /  /  /  /  | Song then trails back to the Verse riff






Tap to rate this tab
# A B C D E F G H I J K L M N O P Q R S T U V W X Y Z