Swedish House Mafia - One tab

-------------------------------------------------------------------------------
			     "One (Original Mix)" - Swedish House Mafia
-------------------------------------------------------------------------------
Tabbed by:TimoPed
Email: tpvg3@hotmail.com

Tuning: Normal

Main chords: G - A# - Dm - C
[x] = harmonic
No rhythm

e|---------------------------------------------------------------------------|
B|---------------------------------------------------------------------------|
G|-----[5]-------------------------------------------------------------------|
D|-[7]-----3-2-0-0-0-0-0-0--0-0----------------------------------------------|
A|---------------------------------------------------------------------------|
E|---------------------------------------------------------------------------|

Part 1: (x3)
e|---------------------------------------------------------------------------|
B|---------------------------------------------------------------------------|
G|-2-0-----------------------------------------------------------------------|
D|-----3-2-0-0-0-0-0--0-0----------------------------------------------------|
A|---------------------------------------------------------------------------|
E|---------------------------------------------------------------------------|

Part 2: (x4)
e|------------------------------------------------------------------------------|
B|------------------------------------------------------------------------------|
G|-2-0------------------------------0-0-0-0-0--0-0------------------------------|
D|-----3-2-3-3-3-3-3--3-3---7-5-3-2-0-0-0-0-0--0-0------------------------------|
A|---------5-5-5-5-5--5-5-------------------------------------------------------|
E|------------------------------------------------------------------------------|

Part 3: (x2)
e|-5-3-1-0-1-1-1-1-1--1-1---5-3-1-0-3-3-3-3-3--3-3---------------------------|
B|---------------------------------------------------------------------------|
G|---------------------------------------------------------------------------|
D|---------------------------------------------------------------------------|
A|---------------------------------------------------------------------------|
E|---------------------------------------------------------------------------|

Part 4: (x2)
e|-5-3------1-1-1-1-1--1-1--5--------3-3-3-3-3--3-3--------------------------|
B|-----6-5--3-----------------8-6-5------------------------------------------|
G|----------3---------------7--------0---------------------------------------|
D|-5-------------------------------------------------------------------------|
A|----------1---------------5--------3---------------------------------------|
E|-3-------------------------------------------------------------------------|

Part 5: (x2)
e|-------3--1-0----------------0-1--3-1-0------------------------------------|
B|-3-5-6----3---3-1----------3------------3-1--------------------------------|
G|----------3-------2--0-2---2----------------2--0-2-------------------------|
D|-5-------------------------0-----------------------------------------------|
A|----------1-------------------------3--------------------------------------|
E|-3-------------------------------------------------------------------------|

Not sure about how many repeats of this
e|---------------------------------------------------------------------------|
B|---------------------------------------------------------------------------|
G|-22222222222222222222222222------------------------------------------------|
D|---------------------------------------------------------------------------|
A|---------------------------------------------------------------------------|
E|---------------------------------------------------------------------------|

Then:

Part 2 (x6)
Part 5 (x2)
Part 2 (x2)
Part 3 (x2)
Part 5 (x2) - different ending here. Haven't tabbed it.

NB! This is how the original version is. It might be too long to play on guitar, so play 
the parts as many times as you want.

If you find any mistakes, please send me an e-mail.
Tap to rate this tab
 
# A B C D E F G H I J K L M N O P Q R S T U V W X Y Z