Song name
# A B C D E F G H I J K L M N O P Q R S T U V W X Y Z

Sweet Charity - Kamelia tab

This is a nice song. Starts with clean guitar.


---------------------------------------------------------------|
---------------------------------------------------------------|
---------------------------------------------------------------|
---------------8-10---10h11--------10s8---8-10---10h11-8-------|
-----------9-8--------------------------8----------------------|
-6-------6-----------------------------------------------------|


-------------------------------------------------------|
-------------------------------------------------------|
-------------------------------------------------------|
-------------------------------------------------------|
---------------1-3---3h4-------3s1---1-3---3h4-1-------|
-6-------1-2-1---------------------1-------------------|



The next parts, use distortion


-----------------|
-----------------|
-----------------|
-------3-----3---|
-3-4-6---4-6-----|
-----------------| x2



----------------------------------4^-----4^---2--1--------|
-----------------------4^---2---2-------------------------|
-----5---3-2-3-5---3-2--------5---------------------------|
-2s3------------------------------------------------------|
----------------------------------------------------------|
----------------------------------------------------------|


P/s: This is my fist time tabbing, so maybe I did something wrong..

http://www.myspace.com/sweetcharitysingapore - Official MySpace, fan made
Tap to rate this tab
 
# A B C D E F G H I J K L M N O P Q R S T U V W X Y Z