Song name
# A B C D E F G H I J K L M N O P Q R S T U V W X Y Z

Swim - Wherever You Go tab

Help us improve GuitareTab! Take a short survey!
#----------------------------------PLEASE NOTE--------------------------------#
#This file is the author's own work and represents their interpretation of the#
#song. You may only use this file for private study, scholarship, or research.#
#-----------------------------------------------------------------------------#
#-- File created with Instab - http://www.pconline.com/~smcarey/instab.html --#
#-----------------------------------------------------------------------------#

Author/Artist: Swim
Title: Wherever You Go
Album: Swim
Transcribed by: Rohan Kohli
Email: rkohli@xrs.net

This is a local band from Antioch, IL who were very
kind to me, and even sent me a free CD.  I've lost
touch with the band, and if anyone knows their email,
I'd be most grateful.


Intro/Verse/Solo backing:
-----------------------------------5------------------------------------------|
---------------------------------5-5------------------------------------------|
-------------------------------6-6-6------------------------------------------|
-14--14-14-14--10--10-10-10--7-7-7-7--10-10-1010\-----------------------------|
-14--14-14-14--10--10-10-10--7-7-7-7--10-10-1010\-----------------------------|
-12--12-12-12--8---8--8--8---5-5-5-5--8--8--8-8-\-----------------------------|


Chorus:
-3-3-3--2-2-2--3-3-3-3-3-3-3--------------------------------------------------|
-3-3-3--3-3-3--3-3-3-3-3-3-3--------------------------------------------------|
-0-0-0--2-2-2--0-0-0-0-0-0-0--------------------------------------------------|
-0-0-0--0-0-0--2-2-2-2-2-2-2--------------------------------------------------|
-2-2-2---------3-3-3-3-3-3-3--------------------------------------------------|
-3-3-3------------------------------------------------------------------------|

Solo:
-----------------------------10-10-10-7-10-10\12-----10---10-7-7---10-7-------|
-----------------8h10p8h10----------------------------------------------10----|
-7h9---7h9p7h9----------------------------------------------------------------|
------------------------------------------------------------------------------|
------------------------------------------------------------------------------|
------------------------------------------------------------------------------|


------------------------------------------------------------------------------|
------------------------------------------------------------------------------|
----------------------------7-9-7--9-7-9-------7h9-9--------------------------|
-7h9p7h9p7h9---7h9-7h9-7-----------------9--9---------9-7---------------------|
------------------------------------------------------------------------------|
------------------------------------------------------------------------------|

Sorry I didn't finish the solo, but just continue on the minor pentatonic in
the key of C.  Sorry once again, but its better when you improvise stuff, at
least for me.
Related for Wherever You Go tab