Guitaretab - guitar tabs
Song name
# A B C D E F G H I J K L M N O P Q R S T U V W X Y Z

Switchblade Symphony - Dollhouse tab

Not the whole song but if you are good enough to play it you are good enough to figure it out.

Dollhouse intro/verse
[ Tab from: http://www.guitaretab.com/s/switchblade-symphony/18892.html ]
e-------------------------------------------------|
b-------------------------------------------------|
g---11\----------9---------9---11---11---11-x--x--|
d---11\----9h11-----9h11-----------11---11-x--x---|
a-------------------------------------------------|
E-------------------------------------------------|

e---------------------------------------------------|
b---------------------------------------------------|
g--11--11--x--x--11h13---13---13----13p11--11--11---|
d--11--11--x--x--11------11---11----11------11--11--|
a---------------------------------------------------|
E---------------------------------------------------|
Related for Dollhouse tab