Song name
# A B C D E F G H I J K L M N O P Q R S T U V W X Y Z

Switchfoot - Mess Of Me tab

this is off of Switchfoot's new album "Hello Hurricane"
it is sort of like a break off of Meant to Live.

e------------------------------\
b------------------------------\
g------------------------------\ this is the intro/part they play after the verse
d--7b-7b-7b-5-7--7b-7b-7b-5-7--\
a------------------------------\
e-0-------------0--------------\


e----------------\
b----------------\ this is the part where he says "there ain't no drug"
g----------------\ they are sticcatoed notes.
d-2-2-2-2-2-2-2--\
a-2-2-2-2-2-2-2--\
e-0-0-0-0-0-0-0--\

e-0-0-0-0-3-3-3-3\-\
b-3-3-3-3-0-0-0-0--\
g-3-3-3-3-0-0-0-0--\this is the chorus or the "i have made a mess of me" part
d-3-3-3-3-0-0-0-0--\it sounds like they might be doing something else but these
a-0-0-0-0-2-2-2-2--\chords do work.
e-x-x-x-x-3-3-3-3--\

this is my first tab so im sure there will be some errors, you might have to experience 
it, let me know what you come up with so i can make this tab first rate please. Enjoy!
Tap to rate this tab
# A B C D E F G H I J K L M N O P Q R S T U V W X Y Z