Switchfoot - This Is Your Life chords

Highlighted       Show chord diagrams
-----------------------------------------------------------------------------
                            THIS IS YOUR LIFE                 SWITCHFOOT     
-----------------------------------------------------------------------------

Tabbed by:hurricaneherman
Tuning:The intro riff is in drop D tuning, down 1/2 step, but the rest is in
standard tuning.

*Chords listed at end

~INTRO~
     C#m                           A
eb|--------------------------------------------------------|
Bb|--------------------------------------------------------|
Gb|----------------------------------------2---------------|
Db|------------------------------0-----0-----3-------------|X[4]
Ab|5-----5---8-5-------5-8---------1-----------------------|
Db|--0-------------0---------------------------------------|
  NOTE:This riff starts over every time there's a C#m, except on the second
  chorus, and the interlude.

~VERSE~

C#m                                    A
Yesterday is a wrinkle on your forehead
C#m                                      A
Yesterday is a promise that you've broken
B                A    B                A
Don't close your eyes don't close your eyes
             C#m
This is your life
                               A    C#m
And today is all you've got now and
                          A
And today is all you ever had
B                A    B                A
Don't close your eyes don't close your eyes

~CHORUS~
             E            B                 Asus2
This is your life are you who you want to be
             E            B                 Asus2
This is your life are you who you want to be
             E          B              Asus2
This is your life is it everything you dreamed 
                                    E
That it would be when the world was younger
            B             C#m       A
And you had everything to lose

~VERSE~

C#m                             A
Yesterday is a kid in the corner
C#m                       A
Yesterday is dead and over

~REPEAT CHORUS~

~INTERLUDE~ C#m A

~BRIDGE~
B                A    B                A
Don't close your eyes don't close your eyes
B                A    B                A
Don't close your eyes don't close your eyes

~OUTRO-CHORUS~

             E                              Asus2
This is your life are you who you want to be
             E                              Asus2
This is your life are you who you want to be
         E             B                 Asus2
Yeah yeah yeah are you who you want to be
             E    B                 Asus2
This is your life who you want to be
             E          B              Asus2
This is your life is it everything you dreamed
                                    E
That it would be when the world was younger
            B             Asus2
And you had everything to lose
                      C#m    A
You had everything to lose

~OUTRO~ NOTE:It starts fading out once you reach the repeat sign.

C#m A C#m A X[2] C#m

*Chords used
      C#m    A     B     E   Asus2
e|-----4-----0-----2-----0-----0-----|
B|-----5-----3-----4-----0-----0-----|
G|-----6-----3-----4-----1-----2-----|
D|-----6-----3-----4-----2-----2-----|
A|-----4-----0-----2-----2-----0-----|
E|-----x-----x-----x-----0-----x-----|

This tab should be 100% correct, but if you find something wrong, you can
leave a comment, so I can fix it.This must have been the first song that Jon
wrote with Jerome in the band, because it really has the sound of
Fold Zandura(Jerome's previous band). 
Tap to rate this tab
 
# A B C D E F G H I J K L M N O P Q R S T U V W X Y Z