Song name
# A B C D E F G H I J K L M N O P Q R S T U V W X Y Z

Sworn Enemy - Weather The Storm tab



I love this sng and I belive many others too that have listened to it.
All right the song starts with a solo then in the background

Repeat this 8 times
Eb---------------------------------------|
Gb---------------------------------------|
Bb---------------------------------------|
Db-3-------------------------------------|
Eb-1h0-00-000-0-000-000-000--------------|
Pm        | |   |||||||  ||  ||||||  |||||||  ||||||

Well call this verse 1

   |-------------------------------------------------------------------------|
   |-------------------------------------------------------------------------|
   |-------------------------------------------------------------------------|
   |-------------------------------------------------------------------------|
   |-7-7-7-7-7-7-7-7-5-5-5-5-5-5------2-2-2-2-3-3-3-3-0-0-0-0----------------|
   |--0-0-0-0-0-0-0----0-0-0-0-0-6565-0-0-0-0-0-0-0-0-0-0-0-0----------------|
pm  |   |   |  |  |   |  |       \  \  \   \  \  | | | |   |   |  |   |   |  |  |   |  |   

After this is the chorus section and then repeats verse 1. I could not figure out the 
but I could figure out the section after it

Sals vocals:  fight for! what you bel fight for!
|-----------------|
|-----------------|
|-----------------|x3
|-----------------|
|-2-3~--6-5~------|
|-0-1~--4-3~------|

|------------------------------------|
|------------------------------------|
|------------------------------------|
|------------------------------------|
|--2_2_2-3~ 3_3_3_6-6-6-5------------|
|--0_0_0-1~ 1_1_1_4-4-4-3------------|
then after this repeat verse 1 again
Tap to rate this tab
# A B C D E F G H I J K L M N O P Q R S T U V W X Y Z