Song name
# A B C D E F G H I J K L M N O P Q R S T U V W X Y Z

Syd Barrett - Feel tab

Way to Go Hiro Taniguchi, this ones for you

Beat Crusaders
FEEL


As you know...LISTEN to the bloody song you crazy kids, makes everything easy-errrrr

Guitar 1
intro
|--------------------------------------------|
|--------------------------------------------|
|-13-------14-13-----------------------------|
|----------------11--------------------------|
|-11-------12-11-----------------------------|
|----------------9---------------------------|

Guitar 2
|---|---|-----|
|---|---|-----|
|---|-2-|-6---|
|-2-|-2-|-6---|
|-2-|-0-|-4---|
|-0-|---|-----|
 x8  x8  x12

At 0:16
guitar 1
|-----------------12-11-|
|-----------------------|
|--11-11-11-11/13-------|
|-----------------------|
|-----------------------|
|-----------------------|

after this Guitar 2
plays the same thing as
the Intro


  E      A      C-sharp   E,
|---|  |---|  |---|
|---|  |---|  |---|
|---|  |-2-|  |-6-|
|-2-|  |-2-|  |-6-|
|-2-|  |-0-|  |-4-|
|-0-|  |---|  |---|


Guitar 1 plays       Then guitar1 plays this
single notes         once at 0:26
at 0:18

|-----------|        |--------------|
|-----7-----|        |----7---10-9--|
|---9---9---|        |--9---9-------|
|-----------|        |--------------|
|-----------|        |--------------|
|-----------|        |--------------|

Guitar 1 keeps playing
single notes                 Then at 0:34
but different ways            ends it like this
like at 0:29 he plays.

|-----------|                 |-------------------------|
|-----7-9---|                 |-----9------10--------12-|
|---9-------|                 |-------------------------|
|-----------|                 |-10-----11-------11------|
|-----------|                 |-------------------------|
|-----------|                 |-------------------------|

0:38 "everytime, you let me"
guitar 2
|--------------------------|-------|
|--------------------------|-------|
|--------------------------|--4---5|
|-44-444---22-222--44-444--|--4---5|
|-44-444---22-222--44-444--|--2---3|
|-22-222---00-000--22-222--|-------|

guitar 1

|------------------------------------------------------------|
|------------------------------------------------------------|
|------------------------------------------------------------|
|-11-11-11-11-11-11--99999998888999--------------------------|
|-11-11-11-11-11-11--99999999999999--------------------------|
|------------------------------------------------------------|
not sure about this one^
its really hard to hear

guitar 2 and 1
0:48 " I feel so Strange"


this mite be hard to hear out
    |----------------------------------------------------|
    |----------------------------------------------------|
    |--------------------4-5-6---------------4-----------|
    |-2----6----7--6-4---4-5-6-6-7-6-----4---4----2------|
    |-2----6----7--6-4---2-3-4-6-7-6-----4---2----2------|
    |-0----4----5--4-2---------4-5-4-----2--------0------|
      ^                                           ^
   I Feel so strange                   whole new world


Guitar 1
ends the chours
with

|-------7---------------|
|---7-------7-----------|
|-9---9---9-------------|
|-----------------------|
|-----------------------|
|-----------------------|


REPEAT All over
song gose back to the intro
and plays again

But frist guitar 1
plays this at 1:21
After you hear the Feedback

                pick this part alot,      last vv note
|----------------->12>--->11>------------------14--------------|
|--7--9--10--9-------------------------------------------------|
|-9--9--9---9--------------------------------------------------|
|--------------------------------------------------------------|
|--------------------------------------------------------------|
|--------------------------------------------------------------|


So just go over the song until you
reach 1:55 and then you play


guitar 2:   C    E       At 2:05
          |---||---|    |------------|
          |---||---|    |------------|
          |-5-||---|    |----7-5-----|
          |-5-||-2-|    |-2--7-5-----|
          |-3-||-2-|    |-2--5-3-----|
          |---||-0-|    |-0----------|

             "A Whole new World"

guitar 1    1:55
|---------------------------------|
|---------------------------------|
|-12--11-9------11/12-11-9--13----|
|-----------9---------------------|  X2
|-10--9--7-------9/10-9--7--11----|
|-----------7---------------------|


Then just play the
"I feel so strange" part till the End

And the last 2 notes they play together
at the same time is

   E           E7
   x           x
   x           x
   x           9
   2           9
   2           7
   0           x

OK IM done, theres alot of back and forth in this song
its easy really, whatever just tell me if anything is stupid in this tizzzab (tab)

good luck walkin behind me
Rusty S.                                              drummedirtydee@yahoo.com
Tap to rate this tab
# A B C D E F G H I J K L M N O P Q R S T U V W X Y Z