Syd Matters - Obstacles tab

Capo 3rd Fret
Standard Tuning

e||--------------0------------------0---------------------------0------------|
B||--------1--------1-----1----3-------3---1-----1--------1-------1-----1----|
G||-----2-----2--------2----------2-----------2--------0-----0-------0-------|
D||--3-----------------------------------------------------------------------|
A||-------------------------------------------------3------------------------|
E||--------------------------------------------------------------------------|

e||--------0----------------|
B||--3---------3---1-----1--|
G||-----0-------------0-----|
D||-------------------------|
A||-------------------------|
E||-------------------------|

Thats the guitar throughout the whole song. :)
Tap to rate this tab
 
# A B C D E F G H I J K L M N O P Q R S T U V W X Y Z