Guitaretab - guitar tabs
Song name
# A B C D E F G H I J K L M N O P Q R S T U V W X Y Z

Symphony X - The Divine Wings Of Tragedy tab

Symphony X

------- The Divine Wings of Tragedy -------

Hey X!! Accept my congratulations.... I don't what to say to you....You are the Gods!!!


 e -----------------------------------------||----------------------------]
 B ------------Play-this-2 times------------||---Here-start-the-keyboard--]
 G -----------------------------------------||----------------------------]
 D -5---5----5----5-5-5--5----5----5-5-5----||----------------------------]
 A -3---3----3----3-3-3--3----3----3-3-3----||----------------------------]
 E -3---3----3----3-3-3--3----3----3-3-3----||----------------------------]

Keyboard play also....
 e --------------------------------|1.------------------------------------]
 B ---2-times----------------------|--------------------------------------]
 G --------------------------------|--------------------------------------]
 D -------------5~~--4~~-----------|-5-5-5--5---5-5---5-5-5-5-------------]
 A -3~~~-------------------4~~--3~~|-3-3-3--3---3-3---3-3-3-3-------------]
 E --------------------------------|-3-3-3--3---3-3---3-3-3-3-------------]
[ Tab from: http://www.guitaretab.com/s/symphony-x/43852.html ]
 e 2.---------------------------------------------------------------------]
 B -----------------------------------------------------------------------]
 G -----------------------------------------------------------------------]
 D -5----5--5----5--5----5--5----5-5-5-5---5----5--5--5--5--5--5--5--5-5-5]
 A -3----3--3----3--3----3--3----3-3-3-3---3----3--3--3--3--3--3--3--3-3-3]
 E -3----3--3----3--3----3--3----3-3-3-3---3----3--3--3--3--3--3--3--3-3-3]

 e --------------------------|___________|--------------------------------]
 B ----Play 5 times----------|1.2.3.4.   |5.---Repeat 5 times-------------]
 G --------------------------------------|--------------------------------]
 D -4---4----4----4-4-4--4----4----4-4-4-|-4---4----4----4-4-4--4---------]
 A -4---4----4----4-4-4--4----4----4-4-4-|-4---4----4----4-4-4--4---------]
 E -2---2----2----2-2-2--2----2----2-2-2-|-2---2----2----2-2-2--2---------]

 e ----------------------------------------|------------------------------]
 B 6.--------------------------------------|---2 times--------------------]
 G ----------------------------------------|------------------------------]
 D -4-4-4-4-4-4-4-4---6~~~~----------------|-6~~--666--5~~---5/6--5/6-----]
 A -4-4-4-4-4-4-4-4---6~~~~---6~~~-5~~~----|-4~~--444--4~~---4----4-------]
 E -2-2-2-2-2-2-2-2---4~~~~------------5~~-|------------------------------]

 e -----------------------------------------------------------------------]
 B -----------------------------------------------------------------------]
 G -----------------------------------------------------------------------]
 D ---------------6---------------6---------4---------3---------2~~~------]
 A -4-4-4-4-4-4-4-4-4-4-4-4-4-4-4-4-4-4-4-4-2-2-2-2-2-1-1-1-1-1-0~~~------]
 E -----------------------------------------------------------------------]

hehehe.....to be continue......


Transcribed by André Gil!!
andre_gil@geocities.com
Related for The Divine Wings Of Tragedy tab