Song name
# A B C D E F G H I J K L M N O P Q R S T U V W X Y Z

Syntax - Destiny tab

Artist: Syntax
Song: Destiny
Album: Meccano Mind
Tuning: Down 2 steps 

x = Fingermute



The intro bassline:

|-------------------------|-------------------------|
|-------------------------|-------------------------|
|-------------------------|-------------------------|
|-0-x-0-x-x-x-0-x-0-x-x-x-|-0-x-0-x-x-x-0-x-0-1-x-4-|

            1                          2



The guitars starts playing later in the song

Guitar riff 1:

|--------------------------------|
|--------------------------------|
|--------------------------------|
|-9-9-9--10-10-10-9-9-9--7-7-7---|
|-7-7-7--7--7--7--7-7-7--7-7-7---|
|--------------------------------|

Guitar riff 2:

|-----------------------------------------|
|-12-12-12--13-13-13--12-12-12--10-10-10--|
|-----------------------------------------|
|-9--9--9---10-10-10--9--9--9---7--7--7---|
|-----------------------------------------|
|-----------------------------------------|
Tap to rate this tab
 
# A B C D E F G H I J K L M N O P Q R S T U V W X Y Z