Song name
# A B C D E F G H I J K L M N O P Q R S T U V W X Y Z

System Of A Down - Suggestion tab

tune your guitar like this:CGCFAD!!!

intro:
|-----5---5---|
|-------0-----|play it 4x
|---7---------|
|-------------|
|-------------|
|-------------|

|-----5---5---|
|-------------|
|---8---0-----|play it 4x
|-------------|
|-------------|
|-------------|

verse:
|--------------------------------------------|
|--------------------------------------------|
|--------------------------------------------|
|-----9---9---9---9---9---9---9---9---9---9--|play it 2x
|---7---7---7---7---7---8---8---8---8---8----|
|--------------------------------------------|

chorus
|--------------------------------------------|
|--------------------------------------------|
|--------------------------------------------|
|--------------------------------------------|play it 2x
|-2-2-2-222-3-3-3-333-2-2-2-222-3-3-3-333----|
|-2-2-2-222-3-3-3-333-2-2-2-222-3-3-3-333----|

verse:
|--------------------------------------------|
|--------------------------------------------|
|--------------------------------------------|
|-----9---9---9---9---9---9---9---9---9---9--|play it 2x
|---7---7---7---7---7---8---8---8---8---8----|
|--------------------------------------------|

chorus
|--------------------------------------------|
|--------------------------------------------|
|--------------------------------------------|
|--------------------------------------------|play it 2x
|-2-2-2-222-3-3-3-333-2-2-2-222-3-3-3-333----|
|-2-2-2-222-3-3-3-333-2-2-2-222-3-3-3-333----|

|--------------------------------------------|
|--------------------------------------------|
|--8-8-8-888-9-9-9-999-8-8-8-888-9-9-9-999---|
|--7-7-7-777-8-8-8-888-7-7-7-777-8-8-8-888---|play it 2x
|--6-6-6-666-7-7-7-777-6-6-6-666-7-7-7-777---|
|--------------------------------------------|

|-----5---5---|
|-------0-----|play it 4x
|---7---------|
|-------------|
|-------------|
|-------------|

|-----5---5---|
|-------------|
|---8---0-----|play it 4x
|-------------|
|-------------|
|-------------|

|--------------------------------------------|
|--------------------------------------------|
|--------------------------------------------|
|--------------------------------------------|play it 2x
|-2-2-2-222-3-3-3-333-2-2-2-222-3-3-3-333----|
|-2-2-2-222-3-3-3-333-2-2-2-222-3-3-3-333----|

|--------------------------------------|
|-----------------5-----------------6--|
|--------------------------------------|
|--22222222222222---33333333333333-----|play it 2x
|--------------------------------------|
|--------------------------------------|

|--------------------------------------------|
|--------------------------------------------|
|--------------------------------------------|
|-----9---9---9---9---9---9---9---9---9---9--|play it 2x
|---7---7---7---7---7---8---8---8---8---8----|
|--------------------------------------------|

|--------------------------------------------|
|--------------------------------------------|
|--------------------------------------------|
|--------------------------------------------|play it 2x
|-2-2-2-222-3-3-3-333-2-2-2-222-3-3-3-333----|
|-2-2-2-222-3-3-3-333-2-2-2-222-3-3-3-333----|

|--------------------------------------------|
|--------------------------------------------|
|--8-8-8-888-9-9-9-999-8-8-8-888-9-9-9-999---|
|--7-7-7-777-8-8-8-888-7-7-7-777-8-8-8-888---|play it 2x
|--6-6-6-666-7-7-7-777-6-6-6-666-7-7-7-777---|
|--------------------------------------------|

so i hope you like my FIRST tabe! it is a bit different than the tab of McCguitar,
but so i play this song! please vote!
Tap to rate this tab
# A B C D E F G H I J K L M N O P Q R S T U V W X Y Z