Song name
# A B C D E F G H I J K L M N O P Q R S T U V W X Y Z

System Of A Down - Jet Pilot tab

                                                           
Tuning: Drop C (CGCFAD)                                     
                                                            
Part 1 (+ = Palm Muted)                                     
D|-----------------------------------------|                
A|-9----9----9----9----9----9----9-----9-9-|                
F|-7----7----7----7----7----7----7-----7-7-|
C|-0000-0000-0000-0000-0000-0000-0000-0000-|                
G|-0000-0000-0000-0000-0000-0000-0000-0000-|                
C|-0000-0000-0000-0000-0000-0000-0000-0000-|
    +++  +++  +++  +++  +++  +++  +++ + +                   

Part 2                                                      
D|-----------------------|
A|-----------------------|                                  
F|-----------------------|                                  
C|---3-2-1-0-1-0h1p0-----|                                  
G|-0-----------------3-1-|
C|-----------------------|                                  
                                                             
Part 3A          Part 3B          Part 3C                
D|--------------|-----------------|---|
A|--------------|-----------------|---|
F|--------------|-----------------|---|
C|-7-8-7-8-7--5-|-7-8-7-8-7-5-5-5-|-7-|
G|-7-8-7-8-7--5-|-7-8-7-8-7-5-5-5-|-7-|
C|-7-8-7-8-7--5-|-7-8-7-8-7-5-5-5-|-7-|
      

Part 4
D|---------------------------------------------------|
A|---------------------------------------------------|
F|---------------------------------------------------|
C|---3-5-7-8-7-10-8-12-10-14-12-14-12-10-8-12-10-8-7-|
G|-0-------------------------------------------------|
C|---------------------------------------------------| 
                   <----Palm Muted---->

Tap to rate this tab
# A B C D E F G H I J K L M N O P Q R S T U V W X Y Z