Guitaretab - guitar tabs
Song name
# A B C D E F G H I J K L M N O P Q R S T U V W X Y Z

System Of A Down - Roulette tab

Roulette
System of a Down
Steal This Album
Tabbed By Eugene Biianov


D  :|*-----------------------------|----------------------------*3|
A  :|*---8-----8-------12-------7--|---10-----10------5------7--*||
F  :| -----------------------------|---------------------------- ||
C  :| -----------------------------|---------------------------- ||
G  :| /7---7-7---7-/10----10-\5---5|/8----8-8----8-\3---3-/5---5 ||
C  :| -----------------------------|---------------------------- ||

D  :|*-----------------------------|----------------------------*3|
A  :|*-----------------------------|----------------------------*||
F  :| -----------------------------|---------------------------- ||
C  :| -----------------------------|---------------------------- ||
G  :| -----------------------------|---------------------------- ||
C  :| -----------------------------|---------------------------- ||

=============================================================================

D  :|*-------------------------|--------------------------*1|
A  :|*---8-----8------4-----4--|---7-----7------5------7--*||
F  :| -------------------------|-------------------------- ||
C  :| -------------------------|-------------------------- ||
G  :| /7---7-7---7-\2---2-2---2|/5---5-5---5-\3---3-/5---5 ||
C  :| -------------------------|-------------------------- ||

D  :|*-------------------------|--------------------------*1|
A  :|*-------------------------|--------------------------*||
F  :| -------------------------|-------------------------- ||
C  :| -------------------------|-------------------------- ||
G  :| -------------------------|-------------------------- ||
C  :| -------------------------|-------------------------- ||

=============================================================================

D  :|*-----------------------------|----------------------------*3|
A  :|*---8-----8-------12-------7--|---10-----10------5------7--*||
F  :| -----------------------------|---------------------------- ||
C  :| -----------------------------|---------------------------- ||
G  :| /7---7-7---7-/10----10-\5---5|/8----8-8----8-\3---3-/5---5 ||
C  :| -----------------------------|---------------------------- ||

D  :|*-----------------------------|----------------------------*3|
A  :|*-----------------------------|----------------------------*||
F  :| -----------------------------|---------------------------- ||
C  :| -----------------------------|---------------------------- ||
G  :| -----------------------------|---------------------------- ||
C  :| -----------------------------|---------------------------- ||

=============================================================================
D  :|*-------------------------|--------------------------*3|
A  :|*---8-----8------4-----4--|---7-----7------5------7--*||
F  :| -------------------------|-------------------------- ||
C  :| -------------------------|-------------------------- ||
G  :| /7---7-7---7-\2---2-2---2|/5---5-5---5-\3---3-/5---5 ||
C  :| -------------------------|-------------------------- ||

D  :|*-------------------------|--------------------------*3|
A  :|*-------------------------|--------------------------*||
F  :| -------------------------|-------------------------- ||
C  :| -------------------------|-------------------------- ||
G  :| -------------------------|-------------------------- ||
C  :| -------------------------|-------------------------- ||

=============================================================================

D  :|*----------------------|-------------------------|
A  :|*-------8-------8------|-------12---------7------|
F  :| ----------------------|-------------------------|
C  :| ----------------------|-------------------------|
G  :| /-7------7---7----7---|/10-------10-\5------5---|
C  :| ----------------------|-------------------------|

D  :|*-12-^------------12-14|-15-^---------------14-15|
A  :|*----------------------|-------------------------|
F  :| ----------------------|-------------------------|
C  :| ----------------------|-------------------------|
G  :| ----------------------|-------------------------|
C  :| ----------------------|-------------------------|

=============================================================================

D  :------------------------|--------------------------|
A  :-------10-------10------|--------5------------7----|
F  :------------------------|--------------------------|
C  :------------------------|--------------------------|
G  :/-8-------8---8-----8---|\-3--------3-/-5--------5-|
C  :------------------------|--------------------------|

D  :-17-^--------------14-15|-17-15-14-12--14-15-14-12-|
A  :------------------------|--------------------------|
F  :------------------------|--------------------------|
C  :------------------------|--------------------------|
G  :------------------------|--------------------------|
C  :------------------------|--------------------------|

=============================================================================

D  :-----------------------|--------------------------|
A  :------8---------8------|-------12------------7----|
F  :-----------------------|--------------------------|
C  :-----------------------|--------------------------|
G  :/-7------7----7----7---|/10-------10-\-5--------5-|
C  :-----------------------|--------------------------|

D  :-12--------------------|--------------------------|
A  :--------12-12-----12-13|-15-13-12-10--12-13-12-10-|
F  :-----------------------|--------------------------|
C  :-----------------------|--------------------------|
G  :-----------------------|--------------------------|
C  :-----------------------|--------------------------|

=============================================================================

D  :--------------------|----------------------*1|
A  :------10-------10---|-------5----------7---*||
F  :--------------------|---------------------- ||
C  :--------------------|---------------------- ||
G  :/-8------8---8----8-|\-3-------3-/5------5- ||
C  :--------------------|---------------------- ||

D  :--------------------|----------------------*1|
A  :-10-----------------|--9\-8-8-\7--7-\5-5---*||
F  :---------7-7--------|-10\-9-9-\7--7-\5-5--- ||
C  :--------------------|---------------------- ||
G  :--------------------|---------------------- ||
C  :--------------------|---------------------- ||

=============================================================================

D  :|*-------------------------|--------------------------*3|
A  :|*---8-----8------4-----4--|---7-----7------5------7--*||
F  :| -------------------------|-------------------------- ||
C  :| -------------------------|-------------------------- ||
G  :| /7---7-7---7-\2---2-2---2|/5---5-5---5-\3---3-/5---5 ||
C  :| -------------------------|-------------------------- ||

D  :|*-------------------------|--------------------------*3|
A  :|*-------------------------|--------------------------*||
F  :| -------------------------|-------------------------- ||
C  :| -------------------------|-------------------------- ||
G  :| -------------------------|-------------------------- ||
C  :| -------------------------|-------------------------- ||

=============================================================================

D  :|*-----------------------------|----------------------------*3|
A  :|*---8-----8-------12-------7--|---10-----10------5------7--*||
F  :| -----------------------------|---------------------------- ||
C  :| -----------------------------|---------------------------- ||
G  :| /7---7-7---7-/10----10-\5---5|/8----8-8----8-\3---3-/5---5 ||
C  :| -----------------------------|---------------------------- ||

D  :|*-----------------------------|----------------------------*3|
A  :|*-----------------------------|----------------------------*||
F  :| -----------------------------|---------------------------- ||
C  :| -----------------------------|---------------------------- ||
G  :| -----------------------------|---------------------------- ||
C  :| -----------------------------|---------------------------- ||

=============================================================================

D  :-------------------|
A  :------7------------|
F  :----9--------------|
C  :--9----------------|
G  :7------------------|
C  :-------------------|

D  :-------------------|
A  :-------------------|
F  :-------------------|
C  :-------------------|
G  :-------------------|
C  :-------------------|



[ Tab from: http://www.guitaretab.com/s/system-of-a-down/24023.html ]
Related for Roulette tab
Roulette chords by System Of A Down