Song name
# A B C D E F G H I J K L M N O P Q R S T U V W X Y Z

System Of A Down - Pictures tab

<<< Pictures >>>

by 'System Of A Down' from 'Steal This Album'

Tabbed by Liam jemmeson [p.l.u.c.k.01@hotmail.com]

Symbols:

>  ~ = Let Ring
>  / = Slide Up
>  \ = Slide Down
>  x = Scratch Strings 
> pm = Palm Mute betweew lines (|--|) and where single lines are (|)
>  : = Lift strings to mute     
>  . = Where written under the tab pick where shown, but where not written, pick every time.
>  h = Hammer-on
>  p = Pull off  
>  b/ = Bend up

      
Intro 
Part I: x8   |Part II: x2
Eb-----------|--------------------------------------|
Bb-----------|--------------------------------------|
Gb-----------|--------------------------------------|
Db--1-0h1-3--|--1-0h1-3--4-3-1-3--1-0h1-3--6-4-3-4--|
Ab--1-0h1-3--|--1-0h1-3--4-3-1-3--1-0h1-3--6-4-3-4--|
Db--1-0h1-3--|--1-0h1-3--4-3-1-3--1-0h1-3--6-4-3-4--|
             pm          |-----|           |-----|

Verse: 
Eb-------------------------------------|
Bb-------------------------------------|
Gb-------------------------------------|
Db--0-0-0-0-0-0-0:--1-0h1-3--4-3-1-3---|
Ab--0-0-0-0-0-0-0:--1-0h1-3--4-3-1-3---|
Db--0-0-0-0-0-0-0:--1-0h1-3--4-3-1-3---|
pm  |-----------|            |-----|

Eb-------------------------------------|
Bb-------------------------------------|
Gb-------------------------------------|
Db--0-0-0-0-0-0-0:--1-0h1-3--6-4-3-4---|
Ab--0-0-0-0-0-0-0:--1-0h1-3--6-4-3-4---|
Db--0-0-0-0-0-0-0:--1-0h1-3--6-4-3-4---|
pm  |-----------|            |-----|

Eb-------------------------------------|
Bb-------------------------------------|
Gb-------------------------------------|
Db--0-0-0-0-0-0-0:--1-0h1-3--4-3-1-3---|
Ab--0-0-0-0-0-0-0:--1-0h1-3--4-3-1-3---|
Db--0-0-0-0-0-0-0:--1-0h1-3--4-3-1-3---|
pm  |-----------|            |-----|


Chorus:
Eb------------------------------------------------------------------|
Bb--------------------------------------------------3-3-3-3-3-3-3\--|
Gb--1-1-1-1-1-1-1:--1-1-1-1-1-1-1:--1-1-1-1-1-1-1:--1-1-1-1-1-1-1\--|
Db--0-0-0-0-0-0-0:--0-0-0-0-0-0-0:--0-0-0-0-0-0-0:--0-0-0-0-0-0-0\--|
Ab--0-0-0-0-0-0-0:--0-0-0-0-0-0-0:--0-0-0-0-0-0-0:--0-0-0-0-0-0-0\--|
Db--0-0-0-0-0-0-0:--0-0-0-0-0-0-0:--0-0-0-0-0-0-0:------------------|
pm  |-----------|   |-----------|   |-----------|   |---| 


Post-Chorus Fill: x2
Eb------------------------------------------------------|
Bb------------------------------------------------------|
Gb---7:-----12:--11:-----15:--14:-----12:--11:-----8:---|
Db---x------x----x-------x----x-------x----x-------x:---|
Ab---5:-----10:--9:------13:--12:-----10:--9:------6:---|
Db------------------------------------------------------|
                           on second time let ring ^

Verse: 
Eb-------------------------------------|
Bb-------------------------------------|
Gb-------------------------------------|
Db--0-0-0-0-0-0-0:--1-0h1-3--4-3-1-3---|
Ab--0-0-0-0-0-0-0:--1-0h1-3--4-3-1-3---|
Db--0-0-0-0-0-0-0:--1-0h1-3--4-3-1-3---|
pm  |-----------|            |-----|

Eb-------------------------------------|
Bb-------------------------------------|
Gb----------1-1-1:---------------------|
Db--0-0-0-0-0-0-0:--1-0h1-3--6-4-3-4---|
Ab--0-0-0-0-0-0-0:--1-0h1-3--6-4-3-4---|
Db--0-0-0-0-0-0-0:--1-0h1-3--6-4-3-4---|
pm                           |-----|

Eb-------------------------------------|
Bb-------------------------------------|
Gb-------------------------------------|
Db--0-0-0-0-0-0-0:--1-0h1-3--4-3-1-3---|
Ab--0-0-0-0-0-0-0:--1-0h1-3--4-3-1-3---|
Db--0-0-0-0-0-0-0:--1-0h1-3--4-3-1-3---|
pm  |-----------|            |-----|


Chorus:
Eb------------------------------------------------------------------|
Bb--------------------------------------------------3-3-3-3-3-3-3\--|
Gb--1-1-1-1-1-1-1:--1-1-1-1-1-1-1:--1-1-1-1-1-1-1:--1-1-1-1-1-1-1\--|
Db--0-0-0-0-0-0-0:--0-0-0-0-0-0-0:--0-0-0-0-0-0-0:--0-0-0-0-0-0-0\--|
Ab--0-0-0-0-0-0-0:--0-0-0-0-0-0-0:--0-0-0-0-0-0-0:--0-0-0-0-0-0-0\--|
Db--0-0-0-0-0-0-0:--0-0-0-0-0-0-0:--0-0-0-0-0-0-0:------------------|
pm  |-----------|   |-----------|   |-----------|   |---| 


Post-Chorus Fill: x2                            |1st   |2nd
Eb----------------------------------------------|------|------|
Bb----------------------------------------------|------|------|
Gb---7:-----12:--11:-----15:--14:-----12:--11:--|--8:--|------|
Db---x------x----x-------x----x-------x----x----|--x:--|------|
Ab---5:-----10:--9:------13:--12:-----10:--9:---|--6:--|--12\-|
Db----------------------------------------------|------|--12\-|


Riff A: x2
Eb-----------------------------|
Bb-----------------------------|
Gb-----------------------------|
Db--1-0~---5-4~---8-7~---5-4~--|
Ab--1-0~---5-4~---8-7~---5-4~--|
Db--1-0~---5-4~---8-7~---5-4~--|

Riff B (All Pm): x2
Eb-------------------------------------------------------------------|
Bb-------------------------------------------------------------------|
Gb-------------------------------------------------------------------|
Db--1-1-0-0-0-0-0-0-5-5-4-4-4-4-4-4-8-8-7-7-7-7-7-7-5-5-4-4-4-4-4-4--|
Ab--1-1-0-0-0-0-0-0-5-5-4-4-4-4-4-4-8-8-7-7-7-7-7-7-5-5-4-4-4-4-4-4--|
Db--1-1-0-0-0-0-0-0-5-5-4-4-4-4-4-4-8-8-7-7-7-7-7-7-5-5-4-4-4-4-4-4--|


Verse: 
Eb---------------------------------------|
Bb---------------------------------------|
Gb---------------------------------------|
Db----0-0-0-0-0-0-0:--1-0h1-3--4-3-1-3---|
Ab----0-0-0-0-0-0-0:--1-0h1-3--4-3-1-3---|
Db-1~-0-0-0-0-0-0-0:--1-0h1-3--4-3-1-3---|
pm    |-----------|            |-----|

Eb-------------------------------------|
Bb-------------------------------------|
Gb-------------------------------------|
Db--0-0-0-0-0-0-0:--1-0h1-3--6-4-3-4---|
Ab--0-0-0-0-0-0-0:--1-0h1-3--6-4-3-4---|
Db--0-0-0-0-0-0-0:--1-0h1-3--6-4-3-4---|
pm  |-----------|            |-----|

Eb-------------------------------------|
Bb-------------------------------------|
Gb-------------------------------------|
Db--0-0-0-0-0-0-0:--1-0h1-3--4-3-1-3---|
Ab--0-0-0-0-0-0-0:--1-0h1-3--4-3-1-3---|
Db--0-0-0-0-0-0-0:--1-0h1-3--4-3-1-3---|
pm  |-----------|


Chorus:
Eb------------------------------------------------------------------|
Bb--------------------------------------------------3-3-3-3-3-3-3\--|
Gb--1-1-1-1-1-1-1:--1-1-1-1-1-1-1:--1-1-1-1-1-1-1:--1-1-1-1-1-1-1\--|
Db--0-0-0-0-0-0-0:--0-0-0-0-0-0-0:--0-0-0-0-0-0-0:--0-0-0-0-0-0-0\--|
Ab--0-0-0-0-0-0-0:--0-0-0-0-0-0-0:--0-0-0-0-0-0-0:--0-0-0-0-0-0-0\--|
Db--0-0-0-0-0-0-0:--0-0-0-0-0-0-0:--0-0-0-0-0-0-0:------------------|
pm  |-----------|   |-----------|   |-----------|   |---| 

Outro: 
Eb---------------------------------------------------------|
Bb---------------------------------------------------------|
Gb---7:-----12:--11:-----15:--14:-----12:--1-1-1-1-1-1-1:--|
Db---x------x----x-------x----x-------x----0-0-0-0-0-0-0:--|
Ab---5:-----10:--9:------13:--12:-----10:--0-0-0-0-0-0-0:--|
Db-----------------------------------------0-0-0-0-0-0-0:--|
pm                                         |---------|      

The end...Please email me or leave a comment                
Tap to rate this tab
 
# A B C D E F G H I J K L M N O P Q R S T U V W X Y Z