Song name
# A B C D E F G H I J K L M N O P Q R S T U V W X Y Z

System Of A Down - U-fig tab

|-------------------------------------|
|-------------------------------------|
|-------------------------------------|
|-14-14-14-16-16-16-18-18-18-18-16-14-|
|-------------------------------------|
|-------------------------------------|(x2)


|----------------------|
|----------------------|
|----14----14----------|
|-14----14----14-14-14-|
|----------------------|
|----------------------|


|-------------------------------------|
|-------------------------------------|
|-------------------------------------|
|-14-14-14-16-16-16-18-18-18-18-16-14-|
|-------------------------------------|
|-------------------------------------|(x2)


|----------------------|
|----------------------|
|----14----14----------|
|-14----14----14-14-14-|
|----------------------|
|----------------------|


|-------------|
|-------------|
|-------------|
|-3-3-3-5-5-5-|
|-3-3-3-5-5-5-|
|-3-3-3-5-5-5-|(x8)

thats all i got
Tap to rate this tab
# A B C D E F G H I J K L M N O P Q R S T U V W X Y Z