Taeyang - I Need A Girl tab

I Need A Girl - Taeyang
http://www.youtube.com/watch?v=MjL9VU8Olpk

Tuning:Standard
Capo 2nd Fret
Verses & Chorus
e|--------2---------------------4----------2---------------------------------|
B|--------2----------2----------5----------2---------------------------------|
G|--------2----------1----------6----------2---------------------------------|
D|--------0----------2----------4----------2---------------------------------|
A|--------0----------0----------4----------4---------------------------------|
E|-----------------------------------------2---------------------------------|
  Saenggak eopneun maltu    ...malgu   ...ana jul

Bridge ( go back to verse / chorus )
e|--------3---------------------3--------------------2--------2--------4-----|
B|--------3----------2----------5--------------------2--------2--------6-----|
G|--------4----------1----------4--------------------2--------2--------4-----|
D|--------5----------2----------5----------2---------0--------0--------6-----|
A|--------5----------0----------3----------2---------0--------0--------4-----|
E|--------3--------------------------------0---------------------------------|     
     Dashi nae gaseumeul   ...Dashi dalkomhan    ...You know    ..mameul jugo



Jon Datuin


************************************

| /   slide up
| \   slide down
| h   hammer-on
| p   pull-off
| ~   vibrato
| +   harmonic
| x   Mute note
| b   Bend
| pb  Pre-bend
| br  Bend release
| pbr Pre-bend release
| brb Bend release bend

************************************
Tap to rate this tab
 
# A B C D E F G H I J K L M N O P Q R S T U V W X Y Z