Song name
# A B C D E F G H I J K L M N O P Q R S T U V W X Y Z

Taking Back Sunday - Sleep tab

Song: "Sleep"
Artist: Taking Back Sunday
Album: Louder Now (B-Side)

Tuning: Half step

h = hammer on
p = pull off
x = muted note
~ = let ring
\ = slide
PM= palm mute


Listen to the song for strumming.


***Guitar I***
Intro:
(Clean)
|--------------------|---------------|-----------------|------------|
|--------------------|---------------|-----------------|------------|
|-7---9-9-11-11\--6--|--6-6-9-9\-14--|--9-9-11-11\--6--|--6-6-4-4\--|
|-x---x-x--x--x---x--|--x-x-x-x---x--|--x-x--x--x---x--|--x-x-x-x---|
|-5---7-7--9--9\--4--|--4-4-7-7\-12--|--7-7--9--9\--4--|--4-4-2-2\--|
|--------------------|---------------|-----------------|------------|

(Distortion)
|---------------------------------------------------------------|
|---------------------------------------------------------------|
|-14---9-9-11-11\--6---6-6-9-9/--14---9-9-11-11\--6---6-6-4-4\--|
|--x---x-x--x--x---x---x-x-x-x----x---x-x--x--x---x---x-x-x-x---|
|-12---7-7--9--9\--4---4-4-7-7/--12---7-7--9--9\--4---4-4-2-2\--|
|---------------------------------------------------------------|

|--------------------------------------------------------------|
|--------------------------------------------------------------|
|-14---9-9-11-11\--6---6-6-9-9/--14---9-9-11-11\--6-6--4-4--4--|
|--x---x-x--x--x---x---x-x-x-x----x---x-x--x--x---x-x--x-x--x--|
|-12---7-7--9--9\--4---4-4-7-7/--12---7-7--9--9\--4-4--2-2--2--|
|--------------------------------------------------------------|


Verse:
|--------------------------------------------------|
|--------------------------------------------------|
|-/14-14-14-14-14-14-14-13-13-13-13-13-13-13-13-13-|
|-/-x--x--x--x--x--x--x--x--x--x--x--x--x--x--x--x-|
|-/12-12-12-12-12-12-12-11-11-11-11-11-11-11-11-11-|
|--------------------------------------------------|--\
                                                       \
|----------------------------------------|              \
|----------------------------------------|               |
|-11-11-11-11-11-11-11-9-9-9-9-9-9-9-9-9-|               |
|--x--x--x--x--x--x--x-x-x-x-x-x-x-x-x-x-|               |
|--9--9--9--9--9--9--9-7-7-7-7-7-7-7-7-7-|               |
|----------------------------------------|               |
                                                         |x2
|-------------------------------------------------|      |
|-------------------------------------------------|      |
|-14-14-14-14-14/16-16\13-13-13-13-13-13-13-13-13-|      |
|--x--x--x--x--x/-x--x\-x--x--x--x--x--x--x--x--x-|      |
|-12-12-12-12-12/14-14\11-11-11-11-11-11-11-11-11-|      |
|-------------------------------------------------|     /
                                                       /
|----------------------------------------|------------/
|----------------------------------------|
|-11-11-11-11-11-11-11-9-9-9-9-9-9-9-9-9-|
|--x--x--x--x--x--x--x-x-x-x-x-x-x-x-x-x-|
|--9--9--9--9--9--9--9-7-7-7-7-7-7-7-7-7-|
|----------------------------------------|



Pre-Chorus:
|-----------------------------------------------------------------------9-10--9-10--9-10--9-|
|----------------------------------------------------------------------10-10-10-10-10-10-10-|
|11-11-11-11--9--9--9--9--14--14--14--14--9-9-9-9-11-11-11-11--9-9-9-9----------------------|
|-x--x--x--x--x--x--x--x---x---x---x---x--x-x-x-x--x--x--x--x--x-x-x-x----------------------|
|-9--9--9--9--7--7--7--7--12--12--12--12--7-7-7-7--9--9--9--9--7-7-7-7----------------------|
|-------------------------------------------------------------------------------------------|


Chorus:
|---------------------------------------------------------------|
|---------------------------------------------------------------|
|-14---9-9-11-11\--6---6-6-9-9/--14---9-9-11-11\--6---6-6-4-4\--|
|--x---x-x--x--x---x---x-x-x-x----x---x-x--x--x---x---x-x-x-x---|
|-12---7-7--9--9\--4---4-4-7-7/--12---7-7--9--9\--4---4-4-2-2\--|
|---------------------------------------------------------------|

|--------------------------------------------------------------|
|--------------------------------------------------------------|
|-14---9-9-11-11\--6---6-6-9-9/--14---9-9-11-11\--6-6--4-4--4--|
|--x---x-x--x--x---x---x-x-x-x----x---x-x--x--x---x-x--x-x--x--|
|-12---7-7--9--9\--4---4-4-7-7/--12---7-7--9--9\--4-4--2-2--2--|
|--------------------------------------------------------------|


Verse II:
Basic piano idea tabbed for guitar...

(Slight distortion sounds pretty good)
|-----------------------------(9)~------|
|-----------------------------10~-------|
|-11~------10~-------9~--------9~---7~--|
|-11~------11~-------7~--------0~---7~--|
|--9~-------9~-------7~-------------5~--|
|---------------------------------------|
                                   
|---------------------------------------------0~---|
|---------------------------------------------0~---|
|---------------------------------------------7~---|
|-7-7-7-7-7-7-7-7-7-7-7-7-7-7-7-7-7-7-7-7-7-7-7~---|
|-5-5-5-5-5-5-5-5-4-4-4-4-4-4-4-4-5-5-5-5-5-5-5~---|
|--------------------------------------------------|
PM...........................................


***Verse
***Pre-Chorus
***Chorus


Bridge:
Let all ring...
|----9----10---9-----10---9----12---9-----9----9----10---9-----10---9----12---9-----9-|
|-10---10--------10---------10--------10----10---10--------10---------10--------10----|
|-------------------------------------------------------------------------------------|
|-------------------------------------------------------------------------------------|
|-------------------------------------------------------------------------------------|
|-------------------------------------------------------------------------------------|

|----9----10---9-----10---9----12---9-----9----9----10---9-----10---9-------------------|
|-10---10--------10---------10--------10----10---10--------10---------10h12h14p12h10h12-|
|---------------------------------------------------------------------------------------|
|---------------------------------------------------------------------------------------|
|---------------------------------------------------------------------------------------|
|---------------------------------------------------------------------------------------|


***Pre-Chorus
***Chorus/Bridge
***Chorus



***Guitar II***


Intro
|---------------------------------------------------------------|
|---------------------------------------------------------------|
|--9---9-9--7--7\--6---6-6-7-7\---9---9-9--7--7\--6---6-6-4-4\--|
|--x---x-x--x--x---x---x-x-x-x----x---x-x--x--x---x---x-x-x-x---|
|--7---7-7--5--5\--4---4-4-5-5\---7---7-7--5--5\--4---4-4-2-2\--|
|---------------------------------------------------------------|

|--------------------------------------------------------------|
|--------------------------------------------------------------|
|--9---9-9--7--7\--6---6-6-7-7\---9---9-9--7--7\--6-6--4-4--4--|
|--x---x-x--x--x---x---x-x-x-x----x---x-x--x--x---6-6--4-4--4--|
|--7---7-7--5--5\--4---4-4-5-5\---7---7-7--5--5\--4-4--2-2--2--|
|--------------------------------------------------------------|



Verse:

(Rest)

|----------------------------------|
|----------------------------------|
|----------------------------------|
|----------------------------------|
|--4-4-4-4-4-4-4-2-2-2-2-2-2-2-2-2-|
|--2-2-2-2-2-2-2-0-0-0-0-0-0-0-0-0-|----|
PM ...............................      |x2
                                        |
|---------------------------------|    /
|---------------------------------|   /
|---------------------------------|--|
|-4-4-4-4-4-4-4-6-6-6-6-6-6-6-6-6-|
|-2-2-2-2-2-2-2-4-4-4-4-4-4-4-4-4-|
|---------------------------------|
PM...............................

The second time around play the last two chords open.


Pre Chorus:
|--------------------------------------------------------------------|
|--------------------------------------------------------------------|
|-7-7-7-7-7-7-7-7-7-7-7-7-7-7-7-7-4-4-4-4-4-4-4-4-6--6-6--6-6--6-6-6-|
|-7-7-7-7-7-7-7-7-7-7-7-7-7-7-7-7-4-4-4-4-4-4-4-4-6--6-6--6-6--6-6-6-|
|-5-5-5-5-5-5-5-5-5-5-5-5-5-5-5-5-2-2-2-2-2-2-2-2-4--4-4--4-4--4-4-4-|
|--------------------------------------------------------------------|


Chorus:
|---------------------------------------------------------------|
|---------------------------------------------------------------|
|--9---9-9--7--7\--6---6-6-7-7\---9---9-9--7--7\--6---6-6-4-4\--|
|--x---x-x--x--x---x---x-x-x-x----x---x-x--x--x---x---x-x-x-x---|
|--7---7-7--5--5\--4---4-4-5-5\---7---7-7--5--5\--4---4-4-2-2\--|
|---------------------------------------------------------------|

|--------------------------------------------------------------|
|--------------------------------------------------------------|
|--9---9-9--7--7\--6---6-6-7-7\---9---9-9--7--7\--6-6--4-4--4--|
|--x---x-x--x--x---x---x-x-x-x----x---x-x--x--x---6-6--4-4--4--|
|--7---7-7--5--5\--4---4-4-5-5\---7---7-7--5--5\--4-4--2-2--2--|
|--------------------------------------------------------------|


Verse II:

(Rest)

|---------------------------------------------0~---|
|---------------------------------------------0~---|
|---------------------------------------------7~---|
|-7-7-7-7-7-7-7-7-7-7-7-7-7-7-7-7-7-7-7-7-7-7-7~---|
|-5-5-5-5-5-5-5-5-4-4-4-4-4-4-4-4-5-5-5-5-5-5-5~---|
|--------------------------------------------------|
PM...........................................



***Verse
***Pre-Chorus
***Chorus



Bridge:

It's essentially the chorus...

|-------------------------------------------------------------------------------------|x2
|-------------------------------------------------------------------------------------|
|--9-------9-9-7--7\----6-------6-6-7--7\----9-------9-9-7--7\----6-------6-6-4--4\---|
|--x-------x-x-x--x-----x-------x-x-x--x-----x-------x-x-x--x-----x-------x-x-x--x----|
|--7-------7-7-5--5\----4-------4-4-5--5\----7-------7-7-5--5\----4-------4-4-2--2\---|
|-------------------------------------------------------------------------------------|


***Chorus
Tap to rate this tab
 
# A B C D E F G H I J K L M N O P Q R S T U V W X Y Z