Song name
# A B C D E F G H I J K L M N O P Q R S T U V W X Y Z

Taking Back Sunday - Make Damn Sure tab

-------------------------------------------------------------------------------
			     Make Damn Sure- Taking Back Sunday
-------------------------------------------------------------------------------
Tabbed by: Jason Paszek (Autopoietic Boy)
Email: J.W.Paszek.guitar.instruction@gmail.com

Tuning: C#G#C#F#Bbeb Drop D and tuned a half step down


Gtr. 2

e|---------------------------------------------------------------------------|
B|---------------------------------------------------------------------------|
G|--------------------------------------------------------------2------------|
D|------4-----4-----4-----4------5------4-----4-----4-----4---2--------------|
A|--2-2---2-2---5-5-----------------2-2---2-2---------------0----------------|
E|--------------------2-2----5-5----------------4-4---2-2--------------------|



Verse 1:

Gtr. 1 (w/Gtr. 2 playing over it)

      pm.............................................................
e|---------------------------------------------------------------------------|
B|---------------------------------------------------------------------------|
G|222-------------------------------------------------5-5-5-5-5-5-5-5--------|
D|222-5-5-5-5-5-5-5-5-9-9-9-9-9-9-9-9-2-2-2-2-2-2-2-2-5-5-5-5-5-5-5-5--------|
A|000-5-5-5-5-5-5-5-5-9-9-9-9-9-9-9-9-2-2-2-2-2-2-2-2-3-3-3-3-3-3-3-3--------|
E|----5-5-5-5-5-5-5-5-9-9-9-9-9-9-9-9-2-2-2-2-2-2-2-2-5-5-5-5-5-5-5-5--------|


  pm..............................................
e|---------------------------------------------------------------------------|
B|---------------------------------------------------------------------------|
G|-------------------------------------------------2-2-2-2-2-2-2-2-----------|
D|-5-5-5-5-5-5-5-5-9-9-9-9-9-9-9-9-2-2-2-2-2-2-2-2-2-2-2-2-2-2-2-2-----------|
A|-5-5-5-5-5-5-5-5-9-9-9-9-9-9-9-9-2-2-2-2-2-2-2-2-0-0-0-0-0-0-0-0-----------|
E|-5-5-5-5-5-5-5-5-9-9-9-9-9-9-9-9-2-2-2-2-2-2-2-2---------------------------|




Pre-Chorus: Play 2x

Gtr. 1

e|---------------------------------------------------------------------------|
B|---------------------------------------------------------------------------|
G|--5-----------------------4-------2----------------------------------------|
D|--5-----------------------2-------0----------------------------------------|
A|--3-----------------------2-------0----------------------------------------|
E|--5-----------------------2-------0----------------------------------------|

Gtr. 2 (Should be played an octave higher but I'm using an acoustic)

e|------------------7-----------------------10-------------------------------|
B|----7---8---7---8---8-------7---8---7---8----8-----------------------------|
G|--0---0---0---0-----------0---0---0---0------------------------------------|
D|---------------------------------------------------------------------------|
A|---------------------------------------------------------------------------|
E|---------------------------------------------------------------------------|



Chorus: 1x

e|---------------------------------------------------------------------------|
B|---------------------------------------------------------------------------|
G|--------------------------------------5------------------------------------|
D|--5-------------0-----------2---------5------------------------------------|
A|--5-------------0-----------2---------3------------------------------------|
E|--5-------------0-----------2---------5------------------------------------|

...break you down..                ..in the worst way




Verse 2

Gtr. 1 (w/Gtr. 2 playing over it)

  pm..............................................
e|---------------------------------------------------------------------------|
B|---------------------------------------------------------------------------|
G|-------------------------------------------------5-5-5-5-5-5-5-5-----------|
D|-5-5-5-5-5-5-5-5-9-9-9-9-9-9-9-9-2-2-2-2-2-2-2-2-5-5-5-5-5-5-5-5-----------|
A|-5-5-5-5-5-5-5-5-9-9-9-9-9-9-9-9-2-2-2-2-2-2-2-2-3-3-3-3-3-3-3-3-----------|
E|-5-5-5-5-5-5-5-5-9-9-9-9-9-9-9-9-2-2-2-2-2-2-2-2-5-5-5-5-5-5-5-5-----------|



  pm........................................................
e|---------------------------------------------------------------------------|
B|---------------------------------------------------------------------------|
G|-------------------------------------------------2-2-2-2-2--2-2-2----------|
D|-5-5-5-5-5-5-5-5-9-9-9-9-9-9-9-9-2-2-2-2-2-2-2-2-2-2-2-2-2--2-2-2----------|
A|-5-5-5-5-5-5-5-5-9-9-9-9-9-9-9-9-2-2-2-2-2-2-2-2-0-0-0-0-0--0-0-0----------|
E|-5-5-5-5-5-5-5-5-9-9-9-9-9-9-9-9-2-2-2-2-2-2-2-2---------------------------|




Pre-Chorus: Play 2x

Gtr. 1

e|---------------------------------------------------------------------------|
B|---------------------------------------------------------------------------|
G|--5-----------------------4-------2----------------------------------------|
D|--5-----------------------2-------0----------------------------------------|
A|--3-----------------------2-------0----------------------------------------|
E|--5-----------------------2-------0----------------------------------------|

Gtr. 2

e|------------------7-----------------------10-------------------------------|
B|----7---8---7---8---8-------7---8---7---8----8-----------------------------|
G|--0---0---0---0-----------0---0---0---0------------------------------------|
D|---------------------------------------------------------------------------|
A|---------------------------------------------------------------------------|
E|---------------------------------------------------------------------------|





Chorus: 2x

e|---------------------------------------------------------------------------|
B|---------------------------------------------------------------------------|
G|--------------------------------------5------------------------------------|
D|--5-------------0-----------2---------5------------------------------------|
A|--5-------------0-----------2---------3------------------------------------|
E|--5-------------0-----------2---------5------------------------------------|




Interlude: 

Gtr. 3

e|---------------------------------------------------------------------------|
B|--8---8---8---8---8---8---8---8---8---8---8---8---8---8---8---8------------|
G|----9---9---9---9---9---9---9---9---9---9---9---9---9---9---9---9----------|
D|---------------------------------------------------------------------------|
A|---------------------------------------------------------------------------|
E|---------------------------------------------------------------------------|



[Enter Vox]

e|---------------------------------------------------------------------------|
B|--8---8---8---8---8---8---8---8---7---7---7---7---7---7---7---7------------|
G|----9---9---9---9---9---9---9---9---9---9---9---9---9---9---9---9----------|
D|---------------------------------------------------------------------------|
A|---------------------------------------------------------------------------|
E|---------------------------------------------------------------------------|


e|---------------------------------------------------------------------------|
B|--3---3---3---3---3---3---3---3---1---1---1---1---1---1---1---1------------|
G|----5---5---5---5---5---5---5---5---0---0---0---0---0---0---0---0----------|
D|---------------------------------------------------------------------------|
A|---------------------------------------------------------------------------|
E|---------------------------------------------------------------------------|



Gtr. 1

    E               D           C
e|---------------------------------------------------------------------------|
B|---------------------------------------------------------------------------|
G|------------------------------5--------------------------------------------|
D|--2---------------0-----------5--------------------------------------------|
A|--2---------------0-----------3--------------------------------------------|
E|--2---------------0-----------5--------------------------------------------|

Gtr. 2 

    E              D            C
e|---------------------------------------------------------------------------|
B|---------------------------------------------------------------------------|
G|--9--------------11-----------9--7--5--4--9--7--5--4--9--7--5--4--9----11--|
D|--x--------------x------------x--x--x--x--x--x--x--x--x--x--x--x--x----x---|
A|--7--------------9------------7--5--3--2--7--5--3--2--7--5--3--2--7----9---|
E|---------------------------------------------------------------------------|

Gtr. 3

   E                                D
e|---------------------------------------------------------------------------|
B|--8---8---8---8---8---8---8---8---7---7---7---7---7---7---7---7------------|
G|----9---9---9---9---9---9---9---9---9---9---9---9---9---9---9---9----------|
D|---------------------------------------------------------------------------|
A|---------------------------------------------------------------------------|
E|---------------------------------------------------------------------------|





Chorus: 2x

e|---------------------------------------------------------------------------|
B|---------------------------------------------------------------------------|
G|--------------------------------------5------------------------------------|
D|--5-------------0-----------2---------5------------------------------------|
A|--5-------------0-----------2---------3------------------------------------|
E|--5-------------0-----------2---------5------------------------------------|



Gtr. 2 (Enters on the 2nd chorus)

e|------------------7-----------------------10-------------------------------|
B|----7---8---7---8---8-------7---8---7---8----8-----------------------------|
G|--0---0---0---0-----------0---0---0---0------------------------------------|
D|---------------------------------------------------------------------------|
A|---------------------------------------------------------------------------|
E|---------------------------------------------------------------------------|






Outro:

Gtr. 2
                                            let ring......
e|------------------7-----------------------10-------------------------------|
B|----7---8---7---8---8-------7---8---7---8-8--------------------------------|
G|--0---0---0---0-----------0---0---0---0---0--------------------------------|
D|---------------------------------------------------------------------------|
A|---------------------------------------------------------------------------|
E|---------------------------------------------------------------------------|



************************************

| /   slide up
| \   slide down
| h   hammer-on
| p   pull-off
| ~   vibrato
| +   harmonic
| x   Mute note
| b   Bend
| pb  Pre-bend
| br  Bend release
| pbr Pre-bend release
| brb Bend release bend

************************************
Tap to rate this tab
# A B C D E F G H I J K L M N O P Q R S T U V W X Y Z