Song name
# A B C D E F G H I J K L M N O P Q R S T U V W X Y Z

Talk Talk - I Believe In You chords

Highlighted       Show chord diagrams
---------------------------------------------------------------------
                    I BELIEVE IN YOU : Talk Talk
---------------------------------------------------------------------
Tabbed by: lifer
Email:

Tuning: standard

     E    F#   F#2  A    B
e|---0----2----0----0----0-------------------------------------------|
B|---0----2----0----0----0-------------------------------------------|
G|---1----3----3----6----8-------------------------------------------|
D|---2----4----4----7----9-------------------------------------------|
A|---2----4----4----7----9-------------------------------------------|
E|---0----2----2----5----7-------------------------------------------|

Note: This is just the way I like to play the chords. It sounds fine if you play them normally.

F#                     F#2
Hear it in my spirit
                       F#      F#2
I've seen heroin for myself
       F#                               F#2
On the street so young laying wasted

Enough ain't it enough
         F#
Crippled world
             F#2                              A
I just can't bring myself to see it starting

F#  F#2 (x2)

Same for next verse

E     A
  Spi-rit
B     A
  How long

Then the bridge part is:

E  F#2

…you’ll have to listen carefully to hear the changes. I realize there are gaps in this, 
but I didn’t want to blaspheme the song too much. Good luck!
Tap to rate this tab
# A B C D E F G H I J K L M N O P Q R S T U V W X Y Z