Guitaretab - guitar tabs
Song name
# A B C D E F G H I J K L M N O P Q R S T U V W X Y Z

Talking Heads - Im Not In Love tab

-------------------------------------------------------------------------------
I'm Not In Love - Talking Heads
-------------------------------------------------------------------------------
Tabbed by: David K
Email: thischarmingman13@gmail.com

Tuning: Standard

e|-------0-0-----------0-0-----------0-0-------------------------------------|
B|-------.-.-----------.-.-----------.-.-------------------------------------|
G|-------5-5-----------5-5-----------5-5-------------------------------------|
D|-5-7-.-7-7-----5-7-.-7-7-----5-7-.-7-7--7-5-3-2----------------------------|
A|---------------------------------------------------------------------------|
E|---------------------------------------------------------------------------|
[ Tab from: http://www.guitaretab.com/t/talking-heads/187739.html ]
e|-----------------------------------------------------------------------------|
B|-5-5----5-5-----5-5----------------------------------------------------------|
G|-5-4----5-4-----5-4----------------------------------------------------------|
D|-5-5----5-5-----5-5-7--------------------------------------------------------|
A|--^---------5-------7--------------------------------------------------------|
E|repeat------5-------5--------------------------------------------------------|
E|------------3----------------------------------------------------------------|


| /  slide up
| \  slide down
| h  hammer-on
| p  pull-off
| ~  vibrato
| +  harmonic
| .  Mute note
===============================================================================
Related for Im Not In Love tab
Advertisement will be closed in 10 seconds