Song name
# A B C D E F G H I J K L M N O P Q R S T U V W X Y Z

Tamar Eisenman - Sun tab

-------------------------------------------------------------------------------
              	            SUN - Tamar Eisenman
-------------------------------------------------------------------------------
Tabbed by: Chai Ozeri
Email: chainet24@gmail.com

Tuning: standard


OK so here are the riffs for all chords:

A riff:

e|---------------------------------------------------------------------|
B|---------------------------------------------------------------------|
G|----------2---2-----------2---2--------------------------------------|
D|---------------------------------------------------------------------|
A|--0---------------0---------------0---------------0------------------|
E|---------------------------------------------------------------------|

D riff:

e|---------------------------------------------------------------------|
B|---------------------------------------------------------------------|
G|----------2---2-----------2---2--------------------------------------|
D|--0---------------0---------------0---------------0------------------|
A|---------------------------------------------------------------------|
E|---------------------------------------------------------------------|

Bm riff:

e|---------------------------------------------------------------------|
B|----------0---0-----------0---0--------------------------------------|
G|---------------------------------------------------------------------|
D|---------------------------------------------------------------------|
A|--2---------------2---------------2---------------2------------------|
E|---------------------------------------------------------------------|

E riff:

e|---------------------------------------------------------------------|
B|----------0---0-----------0---0--------------------------------------|
G|---------------------------------------------------------------------|
D|--2---------------2---------------2---------------2------------------|
A|---------------------------------------------------------------------|
E|---------------------------------------------------------------------|


and the chords are:

for verses:
A D Bm A (repeat a few times)

for chorus:
D A Bm E (repeat a few times)

for exact chord picking, see the chords of this song in ultimate-guitar.com.

try abandoning the riffs towards the end and playing the full chords, I do it after the 
in love".

cheers!

===============================================================================
Tap to rate this tab
# A B C D E F G H I J K L M N O P Q R S T U V W X Y Z