Tame Impala - Desire Be Desire Go tab

                     Tame Impala - Desire Be, Desire Go
                     from their 2010 album Innerspeaker

Hey everyone, this is my first tab. I haven't worked out the chorus or solo
(you can improvise the solo), but I have got the main riff 100% correct as
well as the second riff that I have included.

Go buy Tame Impala's album Innerspeaker! Best album of 2010!


        Main riff
e-------------------------|
B-------------------------|
G-8-10-----8/10-8/10------|      x7
D-8-10-10--8/10-8/10-10-8-| during verses
A-6-8--10--6/8--6/8--10-8-|
E------8-------------8--6-|

        Riff from 3:47 to 4:06
e-------------------------------------------------------|
B-------------------------------------------------------|
G-------------------------------------------------------|           x4
D-------------------------------------------------------|  slightly palm mute it
A-10-10h12-10h12-10-----10h12-12-10-12p10---------10h12-|
E-------------------12-------------------12--10h12------|


-------------
/ = slide
h = hammer on
p = pull off
-------------
Tap to rate this tab
 
# A B C D E F G H I J K L M N O P Q R S T U V W X Y Z