Song name
# A B C D E F G H I J K L M N O P Q R S T U V W X Y Z

Tango In The Attic - Mona Lisa Overdrive tab

Artist: Tango In The Attic
Album: Sellotape
Label: Domicile Crocodiles
Year: 2012

https://www.facebook.com/tangointheattic
http://www.abadgeoffriendship.com/artists/tango-in-the-attic

Fantastic free single from Tango in the Attics second album Sellotape

Bass Intro

G|----------------------------------------------------------|
D|----------------------------------------------------------|
A|----5--5-5-2-0---5--5-5-2-0----7--7-7-2-0-5---5-5-2-0-----|
E|----------------------------------------------------------|

Right Guitar Intro
e|-------------------------------------------------------------|
b|--7-7-7-7-7-7///14-14-14-14-14\\\12-12-12-12-12--------------|
G|--7-7-7-7-7-7///14-14-14-14-14\\\12-12-12-12-12-------|  x 4-|
D|-------------------------------------------------------------|
A|-------------------------------------------------------------|
E|-------------------------------------------------------------|

e|------------------------------------------------|
b|--7-7-7-7-7-7///8-8-8-8-8\\\7-7-7-7-7-7---------|
G|--7-7-7-7-7-7///9-9-9-9-9\\\7-7-7-7-7-7---------|  Let the last note ring out
D|------------------------------------------------|
A|------------------------------------------------|
E|------------------------------------------------|

Guitar Left Intro and verse
e|----------------------------------------------------|
b|--17-17-17-17-17-17///14-14-14-14-14\\\-------------|
G|--17-17-17-17-17-17///14-14-14-14-14\\\------|  x 2-|
D|----------------------------------------------------|
A|----------------------------------------------------|
E|----------------------------------------------------|

e|----------------------------------------------------|
b|--17-17-17-17-17-17///14-14-14-14-14\\\-------------|
G|--17-17-17-17-17-17///14-14-14-14-14\\\------|  x 2-|
D|----------------------------------------------------|
A|----------------------------------------------------|
E|----------------------------------------------------|

Chorus the bass part is F#m (9th on the A)
                                   and D (5 on the A)

Guitar chorus
e|-----------------------------------------------------|
b|-----------------------------------------------------|
G|--7-7-7-7-9/11-9-7-4-7-7-7-7-11-11-11-14-------------|
D|-----------------------------------------------| x 4-|
A|--5-5-5-5-7/9--7-5-2-5-5-5-5-9--9--9--12-------------|
E|-----------------------------------------------------|


Second Verse theres a low guitar in the background playing
e|---------------------------------------------------------------|
b|---------------------------------------------------------------|
G|---------------------------------------------------------------|
D|----4-4-4-2-0---4-4-4-2-0-2-0--0---4-4-4-2-0-2-----0-----------|
A|--------------2----------------2--2---------------2----0-------|
E|---------------------------------------------------------------|


Outro - hook
e|---------------------------------|
b|---------------------------------|
G|----11---9-11-------4-2----------|
D|--------------9\\\------2--0-----|
A|---------------------------------|
E|--10--10-----------3-------------|

Outro left
e|------------------------------------------|
b|------------------------------------------|
G|------------------------------------------|
D|---5-5-5-5-7-9--9-9-9-9-7-5-5-5-5---------|
A|------------------------------------------|
E|------------------------------------------|
Continues messily up and down the scale featuring bends and such.

Please Buy the album "Sellotape" available now!

Listen here for free
http://soundcloud.com/tangointheattic/sets/sellotape
Tap to rate this tab
# A B C D E F G H I J K L M N O P Q R S T U V W X Y Z