Song name
# A B C D E F G H I J K L M N O P Q R S T U V W X Y Z

Tankard - Empty Tankard tab

This is my favorite song of of Tankards debut album Zombie Attack my Favorite album by 
I couldn't find these tabs anywhere so i decided to tab them by ear so if there are any 
with this song lets me no!

THRASH 'TILL DEATH!!!!!!!!!


Intro
|----------------------------------------------------------------------------------------------|
|----------------------------------------------------------------------------------------------|
|----------------------------------------------------------------------------------------------|
|----------------------------------------------------------------------------------------------|
|-4-------7-6-2-------4---7-------8-7-9--------------------------------------------------------|
|-2-22222-5-4-0-00000-2-0-5-55555-7-5-7-77777--------------------------------------------------|

Fim riff 1
|----------------------------------------------------------------------------------|
|----------------------------------------------------------------------------------|
|----------------------------------------------------------------------------------|
|----------------------------------------------------------------------------------|
|-7--99999----7--99999----7--99----7--99-----7--99-----7--99------4-4-4-4----------|
|-5--77777----5--77777----5--77----5--77-----5--77-----5--77------2-2-2-2-.......--|

-Riff 3 (X4)
|----------------------------------------------------------------------------------------------|
|----------------------------------------------------------------------------------------------|
|----------------------------------------------------------------------------------------------|
|----------------------------------------------------------------------------------------------|
|-10--9--7-7----------------10--9--7-7--------------10--9--7-7----10-10--12--12--12-10--9-7-7--|
|--8--7--5-5-55555555...-----8--7--5-5-5555555...----8--7--5-5-----8--8--10--10--10--8--7-5-5--|

-Riff 4 (X2):
|--------------------------------------------------------|
|--------------------------------------------------------|
|--------------------------------------------------------|
|-7--9999999----7--9999999----7--9999999----7--7---------|
|-5--7777777----5--7777777----5--7777777----5--5--7--10--|
|-------------------------------------------------5---8--|

-Riff 5
|-------------------------------------------------|
|-------------------------------------------------|
|-------------------------------------------------|
|-------------------------------------------------|
|-4-----------------------------------------------|
|-2-2222222222222222----7777777777----5555555555--|

Drinking and fucking through the whole night long
Partying with friends 'til fucking dawn
Let's go thrashin' and stagedivin'
Feel the power and sound again

We want to drink some fucking beer,
we want to drink some whiskey

Frankfurt's thrashers will rule tonight
They're well known for their bloody fight
Wodka and Cognac are our leaders
We've the best, we fuck the fuckin' rest

Empty Tankard

We have come to slamdance tonight
Bangin' and bleedin' till the fuckin' end
Playing fast and running free
Stand up maniacs, you have to fight

We want to drink some fucking beer,
we want to drink some whiskey

Liver is broken down so bloody hard
I keep on drinking until I drop
Bang your head against the fuckin' wall
Show the damned whimps who we are

Empty Tankard
Tap to rate this tab
 
# A B C D E F G H I J K L M N O P Q R S T U V W X Y Z