Song name
# A B C D E F G H I J K L M N O P Q R S T U V W X Y Z

Taproot - One Night Stand tab

This is one of my first tabs so bare with me. I came up with this in about 30mins so
its probably not the best tab, but it definately sounds like it.
Tuning EADGBe (standard)

Intro/Verses (Clean)

e|----------------------------------|
B|----------------------------------|
G|----------------------------------|
D|---------7b-77---------7-7b(half)-|
A|----------------------------------|
E|-5-5-5-5-------5-5-5-5-------3-4--|

Chorus (distortion)

e|----------------------------|
B|----------------------------|
G|---------------xx-xx-xxxxxx-|
D|-xx-xx--xx-xx--66-66-666666-|
A|-55-55--77-77--66-66-666666-|
E|-55-55--77-77--66-66-666666-|


Fill (distortion)

e|-------------------------|
B|-------------------------|
G|-------------------------|
D|-------------------------|
A|-77777777777-55555555555-|
E|-------------------------|

Bridge (distortion)

Guitar 1
e|--------------------------|
B|--------------------------|
G|--------------------------|    
D|-xx-xx-xx-xx--xx-xx-xx-xx-|    x3
A|-55-55-55-55--99-99-88-88-|
E|-55-55-55-55--99-99-88-88-|

Guitar 2
e|---------------------------------|
B|---------------------------------|
G|---------------------------------|
D|---------7b-77---------7-7b(half)|
A|---------------------------------|
E|-5-5-5-5-------5-5-5-5------3-4--|

End (distortion)

e|---------------------------------|
B|---------------------------------|
G|---------------------------------|
D|-x-xxx-x-xxx-6-------------------|
A|-5-555-7-777-6--(hold this chord)|
E|-5-555-7-777-6-------------------|
Tap to rate this tab
 
# A B C D E F G H I J K L M N O P Q R S T U V W X Y Z