Guitaretab - guitar tabs
Song name
# A B C D E F G H I J K L M N O P Q R S T U V W X Y Z

Tar - Dean Martin tab

Artist: Tar
Song: Dean Martin
Album: Clincher EP
Composer: Tar

4/4

|-------------------------------|-------------------------------|
|-------------------------------|-------------------------------|
|9-9-9-9-9-9-9-9-9-9-9-9-9-9-9-9|9-9-9-9-9-9-9-9-9-9-9-9-9-9-9-9|
|9-9-9-9-9-9-9-9-9-9-9-9-9-9-9-9|9-9-9-9-9-9-9-9-9-9-9-9-9-9-9-9|
|7-0-7-0-7-0-7-0-7-0-7-0-7-0-7-0|7-0-7-0-7-0-7-0-7-0-7-0-7-0-7-0|
|-------------------------------|-------------------------------|

|----------------|----------------|
|----------------|----------------|
|----------------|----------------|
|5---------------|----------------|
|5---------------|----------------|
|3---------------|----------------|

|-------------------------------|-------------------------------|
|-------------------------------|-------------------------------|
|9-9-9-9-9-9-9-9-9-9-9-9-9-9-9-9|9-9-9-9-9-9-9-9-9-9-9-9-9-9-9-9|
|9-9-9-9-9-9-9-9-9-9-9-9-9-9-9-9|9-9-9-9-9-9-9-9-9-9-9-9-9-9-9-9|
|7-0-7-0-7-0-7-0-7-0-7-0-7-0-7-0|7-0-7-0-7-0-7-0-7-0-7-0-7-0-7-0|
|-------------------------------|-------------------------------|

|----------------|----------------|
|----------------|----------------|
|----------------|----------------|
|5---------------|----------------|
|5---------------|----------------|
|3---------------|----------------|


|-------------------------------|-------------------------------|
|-------------------------------|-------------------------------|
|9-9-9-9-9-9-9-9-9-9-9-9-9-9-9-9|9-9-9-9-9-9-9-9-9-9-9-9-9-9-9-9|
|9-9-9-9-9-9-9-9-9-9-9-9-9-9-9-9|9-9-9-9-9-9-9-9-9-9-9-9-9-9-9-9|
|7-0-7-0-7-0-7-0-7-0-7-0-7-0-7-0|7-0-7-0-7-0-7-0-7-0-7-0-7-0-7-0|
|-------------------------------|-------------------------------|


|----------------|----------------|
|----------------|----------------|
|----------------|3-------5-------|
|5---------------|3-------5-------|
|5---------------|1-------3-------|
|3---------------|----------------|


|---------------------|--------------------|
|---------------------|--------------------|
|6-6-6-6-3-3----------|6-6-6-6-3-3---------|
|6-6-6-6-3-3--3-3-3-3-|6-6-6-6-3-3-3-3-3-3-|
|4-4-4-4-1-1--3-3-3-3-|4-4-4-4-1-1-3-3-3-3-|
|-------------1-1-1-1-|------------1-1-1-1-|

|---------------------|--------------------|
|---------------------|--------------------|
|6-6-6-6-3-3----------|6-6-6-6-3-3---------|
|6-6-6-6-3-3--3-3-3-3-|6-6-6-6-3-3-3-3-3-3-|
|4-4-4-4-1-1--3-3-3-3-|4-4-4-4-1-1-3-3-3-3-|
|-------------1-1-1-1-|------------1-1-1-1-|



|----------------|----------------|----------------|----------------|
|----------------|----------------|----------------|----------------|
|----------------|----------------|----------------|----------------|
|5-5-5-5-5-5-5-5-|4-4-4-4-7-7-7-7-|4-4-4-4-7-7-7-7-|6-6-6-6-6-6-6-6-|
|5-5-5-5-5-5-5-5-|4-4-4-4-7-7-7-7-|4-4-4-4-7-7-7-7-|6-6-6-6-6-6-6-6-|
|3-3-3-3-3-3-3-3-|2-2-2-2-5-5-5-5-|2-2-2-2-5-5-5-5-|4-4-4-4-4-4-4-4-|

|-------------------------------|-------------------------------|
|-------------------------------|-------------------------------|
|9-9-9-9-9-9-9-9-9-9-9-9-9-9-9-9|9-9-9-9-9-9-9-9-9-9-9-9-9-9-9-9|
|9-9-9-9-9-9-9-9-9-9-9-9-9-9-9-9|9-9-9-9-9-9-9-9-9-9-9-9-9-9-9-9|
|7-0-7-0-7-0-7-0-7-0-7-0-7-0-7-0|7-0-7-0-7-0-7-0-7-0-7-0-7-0-7-0|
|-------------------------------|-------------------------------|

|----------------|----------------|
|----------------|----------------|
|----------------|----------------|
|5---------------|----------------|
|5---------------|----------------|
|3---------------|----------------|


|-------------------------------|-------------------------------|
|-------------------------------|-------------------------------|
|9-9-9-9-9-9-9-9-9-9-9-9-9-9-9-9|9-9-9-9-9-9-9-9-9-9-9-9-9-9-9-9|
|9-9-9-9-9-9-9-9-9-9-9-9-9-9-9-9|9-9-9-9-9-9-9-9-9-9-9-9-9-9-9-9|
|7-0-7-0-7-0-7-0-7-0-7-0-7-0-7-0|7-0-7-0-7-0-7-0-7-0-7-0-7-0-7-0|
|-------------------------------|-------------------------------|

|----------------|----------------|
|----------------|----------------|
|----------------|----------------|
|5---------------|----------------|
|5---------------|----------------|
|3---------------|----------------|

|-------------------------------|-------------------------------|
|-------------------------------|-------------------------------|
|9-9-9-9-9-9-9-9-9-9-9-9-9-9-9-9|9-9-9-9-9-9-9-9-9-9-9-9-9-9-9-9|
|9-9-9-9-9-9-9-9-9-9-9-9-9-9-9-9|9-9-9-9-9-9-9-9-9-9-9-9-9-9-9-9|
|7-0-7-0-7-0-7-0-7-0-7-0-7-0-7-0|7-0-7-0-7-0-7-0-7-0-7-0-7-0-7-0|
|-------------------------------|-------------------------------|

3/4

|-----------------|----------------|
|-----------------|----------------|
|6-6-6-6-3-3------|6-6-6-6-3-3-----|
|6-6-6-6-3-3--3-3-|6-6-6-6-3-3-3-3-|
|4-4-4-4-1-1--3-3-|4-4-4-4-1-1-3-3-|
|-------------1-1-|------------1-1-|

|-----------------|----------------|
|-----------------|----------------|
|6-6-6-6-3-3------|6-6-6-6-3-3-----|
|6-6-6-6-3-3--3-3-|6-6-6-6-3-3-3-3-|
|4-4-4-4-1-1--3-3-|4-4-4-4-1-1-3-3-|
|-------------1-1-|------------1-1-|

|-----------------|----------------|
|-----------------|----------------|
|6-6-6-6-3-3------|6-6-6-6-3-3-----|
|6-6-6-6-3-3--3-3-|6-6-6-6-3-3-3-3-|
|4-4-4-4-1-1--3-3-|4-4-4-4-1-1-3-3-|
|-------------1-1-|------------1-1-|

|-----------------|----------------|
|-----------------|----------------|
|6-6-6-6-3-3------|6-6-6-6-3-3-----|
|6-6-6-6-3-3--3-3-|6-6-6-6-3-3-3-3-|
|4-4-4-4-1-1--3-3-|4-4-4-4-1-1-3-3-|
|-------------1-1-|------------1-1-|


4/4
[ Tab from: http://www.guitaretab.com/t/tar/189459.html ]
|----------------|----------------|----------------|----------------|
|----------------|----------------|----------------|----------------|
|----------------|----------------|----------------|----------------|
|5-5-5-5-5-5-5-5-|4-4-4-4-7-7-7-7-|4-4-4-4-7-7-7-7-|6-6-6-6-6-6-6-6-|
|5-5-5-5-5-5-5-5-|4-4-4-4-7-7-7-7-|4-4-4-4-7-7-7-7-|6-6-6-6-6-6-6-6-|
|3-3-3-3-3-3-3-3-|2-2-2-2-5-5-5-5-|2-2-2-2-5-5-5-5-|4-4-4-4-4-4-4-4-|

|-------------------------------|-------------------------------|
|-------------------------------|-------------------------------|
|9-9-9-9-9-9-9-9-9-9-9-9-9-9-9-9|9-9-9-9-9-9-9-9-9-9-9-9-9-9-9-9|
|9-9-9-9-9-9-9-9-9-9-9-9-9-9-9-9|9-9-9-9-9-9-9-9-9-9-9-9-9-9-9-9|
|7-0-7-0-7-0-7-0-7-0-7-0-7-0-7-0|7-0-7-0-7-0-7-0-7-0-7-0-7-0-7-0|
|-------------------------------|-------------------------------|

|----------------|----------------|
|----------------|----------------|
|----------------|----------------|
|5---------------|----------------|
|5---------------|----------------|
|3---------------|----------------|

|-------------------------------|-------------------------------|
|-------------------------------|-------------------------------|
|9-9-9-9-9-9-9-9-9-9-9-9-9-9-9-9|9-9-9-9-9-9-9-9-9-9-9-9-9-9-9-9|
|9-9-9-9-9-9-9-9-9-9-9-9-9-9-9-9|9-9-9-9-9-9-9-9-9-9-9-9-9-9-9-9|
|7-0-7-0-7-0-7-0-7-0-7-0-7-0-7-0|7-0-7-0-7-0-7-0-7-0-7-0-7-0-7-0|
|-------------------------------|-------------------------------|

|----------------|----------------|
|----------------|----------------|
|----------------|----------------|
|5---------------|----------------|
|5---------------|----------------|
|3---------------|----------------|

|-------------------------------|-------------------------------|
|-------------------------------|-------------------------------|
|9-9-9-9-9-9-9-9-9-9-9-9-9-9-9-9|9-9-9-9-9-9-9-9-9-9-9-9-9-9-9-9|
|9-9-9-9-9-9-9-9-9-9-9-9-9-9-9-9|9-9-9-9-9-9-9-9-9-9-9-9-9-9-9-9|
|7-0-7-0-7-0-7-0-7-0-7-0-7-0-7-0|7-0-7-0-7-0-7-0-7-0-7-0-7-0-7-0|
|-------------------------------|-------------------------------|

3/4

|-----------------|----------------|
|-----------------|----------------|
|6-6-6-6-3-3------|6-6-6-6-3-3-----|
|6-6-6-6-3-3--3-3-|6-6-6-6-3-3-3-3-|
|4-4-4-4-1-1--3-3-|4-4-4-4-1-1-3-3-|
|-------------1-1-|------------1-1-|

|-----------------|----------------|
|-----------------|----------------|
|6-6-6-6-3-3------|6-6-6-6-3-3-----|
|6-6-6-6-3-3--3-3-|6-6-6-6-3-3-3-3-|
|4-4-4-4-1-1--3-3-|4-4-4-4-1-1-3-3-|
|-------------1-1-|------------1-1-|

|-----------------|----------------|
|-----------------|----------------|
|6-6-6-6-3-3------|6-6-6-6-3-3-----|
|6-6-6-6-3-3--3-3-|6-6-6-6-3-3-3-3-|
|4-4-4-4-1-1--3-3-|4-4-4-4-1-1-3-3-|
|-------------1-1-|------------1-1-|

|-----------------|----------------|
|-----------------|----------------|
|6-6-6-6-3-3------|6-6-6-6-3-3-----|
|6-6-6-6-3-3--3-3-|6-6-6-6-3-3-3-3-|
|4-4-4-4-1-1--3-3-|4-4-4-4-1-1-3-3-|
|-------------1-1-|------------1-1-|

4/4

|------------------|----------------|----------------|----------------|
|------------------|----------------|----------------|----------------|
|------------------|----------------|----------------|----------------|
|5-5-5-5-5-5-5-5-5-|5-5-5-5-5-5-5-5-|5-5-5-5-5-5-5-5-|5-5-5-5-5-5-5-5-|
|5-5-5-5-5-5-5-5-5-|5-5-5-5-5-5-5-5-|5-5-5-5-5-5-5-5-|5-5-5-5-5-5-5-5-|
|3-3-3-3-3-3-3-3-3-|3-3-3-3-3-3-3-3-|3-3-3-3-3-3-3-3-|3-3-3-3-3-3-3-3-|

3/4

|-----------------|----------------|
|-----------------|----------------|
|6-6-6-6-3-3------|6-6-6-6-3-3-----|
|6-6-6-6-3-3--3-3-|6-6-6-6-3-3-3-3-|
|4-4-4-4-1-1--3-3-|4-4-4-4-1-1-3-3-|
|-------------1-1-|------------1-1-|

|-----------------|----------------|
|-----------------|----------------|
|6-6-6-6-3-3------|6-6-6-6-3-3-----|
|6-6-6-6-3-3--3-3-|6-6-6-6-3-3-3-3-|
|4-4-4-4-1-1--3-3-|4-4-4-4-1-1-3-3-|
|-------------1-1-|------------1-1-|

4/4

|----------------|----------------|----------------|
|----------------|----------------|----------------|
|4-4-4-4-7-7-7-7-|4-4-4-4-7-7-7-7-|4---------------|
|4-4-4-4-7-7-7-7-|4-4-4-4-7-7-7-7-|4---------------|
|2-2-2-2-5-5-5-5-|2-2-2-2-5-5-5-5-|2---------------|
|----------------|----------------|----------------|

|----------------|----------------|----------------|----------------|
|----------------|----------------|----------------|----------------|
|----------------|----------------|----------------|----------------|
|4-4-4-4-7-7-7-7-|4-4-4-4-7-7-7-7-|4-4-4-4-4-4-4-4-|4---------------|
|4-4-4-4-7-7-7-7-|4-4-4-4-7-7-7-7-|4-4-4-4-4-4-4-4-|4---------------|
|2-2-2-2-5-5-5-5-|2-2-2-2-5-5-5-5-|2-2-2-2-2-2-2-2-|2---------------|


|-------------------------------|-------------------------------|
|-------------------------------|-------------------------------|
|9-9-9-9-9-9-9-9-9-9-9-9-9-9-9-9|9-9-9-9-9-9-9-9-9-9-9-9-9-9-9-9|
|9-9-9-9-9-9-9-9-9-9-9-9-9-9-9-9|9-9-9-9-9-9-9-9-9-9-9-9-9-9-9-9|
|7-0-7-0-7-0-7-0-7-0-7-0-7-0-7-0|7-0-7-0-7-0-7-0-7-0-7-0-7-0-7-0|
|-------------------------------|-------------------------------|


|-------------------------------|-------------------------------|
|-------------------------------|-------------------------------|
|9-9-9-9-9-9-9-9-9-9-9-9-9-9-9-9|9-9-9-9-9-9-9-9-9-9-9-9-9-9-9-9|
|9-9-9-9-9-9-9-9-9-9-9-9-9-9-9-9|9-9-9-9-9-9-9-9-9-9-9-9-9-9-9-9|
|7-7-7-0-7-7-7-0-7-7-7-0-7-7-7-0|7-7-7-0-7-7-7-0-7-7-7-0-7-7-7-0|
|-------------------------------|-------------------------------|


|----------------|
|----------------|
|----------------|
|5-5-------------|
|5-5-------------|
|3-3-------------|
Related for Dean Martin tab
Advertisement will be closed in 10 seconds