Guitaretab - guitar tabs
Song name
# A B C D E F G H I J K L M N O P Q R S T U V W X Y Z

Tarrega Francisco - Lagrima tab

Francisco Tarrega
Lagrima

Easy to play and very nice

(largo)

E||--4-----5-----7-----|--2-----------------|
B||-----0-----0-----0--|-----0-----0-----0--|
G||--------------------|--------2-----------|
D||--2-----4-----6-----|--1-----------------|
A||--------------------|--------------2-----|
E||--------------------|--------------------|

repeat

E||--12-----11-----9----|--7--------------5--|
B||------------------7--|-----9-----5--7-----|
G||------9------9-------|--------6-----------|
D||--11-----9------7----|--9-----------------|
A||---------------------|--------------------|
E||---------------------|--------------------|

E||-----------2--------|--0------------------|
B||--9-----2--------4--|---------------------|
G||-----9--3--------2--|--1------------------|
D||--9-----------------|--2--------------fine|
A||--------------2-----|---------------------|
E||--------------------|--------0------------|

[ Tab from: http://www.guitaretab.com/t/tarrega-francisco/18927.html ]
E||--3--8^^7--0--2--3--|--0-----------------|
B||--0--------5--4-----|--------------------|
G||--------------2-----|-----5--4--2--0--2--|
D||--------------------|-----7--5--4--2--4--|
A||--------------2-----|--------------------|
E||--0-----------------|--0-----------------|


E||-----12-----8---------|------------------2--|
B||--0---------------10--|--7------------0-----|
G||--0-------------------|--8------------------|
D||---------7------------|-----9--10^^9--------|
A||---------------9------|---------------------|
E||--0-------------------|--7------------------|


E||--3-----5-----7-----|--10^^8--7------------|
B||-----0-----0-----0--|------------10--8--7--|
G||--------------------|----------------------|
D||--2-----4-----5-----|----------------------|
A||--------------------|--0-------------------|
E||--------------------|----------------------|

E||--0-----2----------|--0-------------------|
B||-----0----3--0-----|----------------------|
G||-----0----2-----2--|--0-------------------|
D||----------------1--|--2-------------------|
A||-------------2-----|-----------D.C al fine|
E||-------------------|--------0-------------|
Related for Lagrima tab
Lagrima chords by Tarrega Francisco