Song name
# A B C D E F G H I J K L M N O P Q R S T U V W X Y Z

Tatsuya Ishii - River tab

Intro & Solo from lead guitar


INTRO
e----1--6--3--------------------------------1--6--3--------------------1------|
b-1----------------------3-----4--3-----1-----------3-----------3-------4--3--|
g------------------4--3-----3--------3-------------------------3---3----------|
D-----------------------------------------------------------------------------|
A-----------------------------------------------------------------------------|
E-----------------------------------------------------------------------------|


SOLO
e-------------------------------------------------------------1---------|
b---------1--------3-----------1--3-----------1--3--3--4----------------|
g--0--3---------------3--------------3--0--3------------------3---------|
D-----------------------------------------------------------------------|
A-----------------------------------------------------------------------|
E-----------------------------------------------------------------------|


e------1--3--1-----|
b-4----------3-----|
g------------------|
D------------------|
A------------------|
E------------------|
Tap to rate this tab
 
# A B C D E F G H I J K L M N O P Q R S T U V W X Y Z