Guitaretab - guitar tabs
Song name
# A B C D E F G H I J K L M N O P Q R S T U V W X Y Z

Tatu - How Soon Is Now tab

 T.A.t.U. HOW SOON IS NOW
*************************************

From the album= 200 km/h in the wrong lane
Day Tabbed= 13.08.06
E Mail= Andrea.b83@hotmail.it
Please mail me for anithyng concerning the tab

1/2 Step Down
[ Tab from: http://www.guitaretab.com/t/tatu/121253.html ]
INTRO/VERSE  (With delay)                                                            CHORUS
e----------------------------------------------------------------/---------------------------------------|
B----------------------------------------------------------------/---------------------------------------|
G----------------------------------------------------------------/------9---------8----11----------------|
D--6--6-----6--6-----6--6-----6--6----6--6-------9-------11------/------9----9----8----11-----6----------|
A--6--6-----6--6-----6--6-----6--6----6--6-------9-------11------/------7----9----6----9------6----------|
E--4--4-----4--4-----4--4-----4--4----4--4-------7--------9------/-----------7----------------4----------|
                                                ( keyboard )


         RIFF ( 0:55 )                CHORUS VARIATION ( 2:37 )
e-----------/----------------/------------------------------------------|
B-----------/----------------/------------------------------------------|
G-----------/----------------/-------9------8------11-------------------|
D---6/4-6---/----6/4-6-------/-------9------8------11------6------------|
A---6/4-6---/----6/4-6-------/-------7------6------9-------6------------|
E---4-4-4---/----4-4-4-------/-----------------------------4------------|
     x 5            x 3
   (Hear the song for the
         right rythm)
Related for How Soon Is Now tab