Song name
# A B C D E F G H I J K L M N O P Q R S T U V W X Y Z

Taylor Swift - White Horse tab

Highlighted       Show chord diagrams
this is tabbed from this video of Taylor playing it live
http://www.youtube.com/watch?v=ql3ezKjDAvs


    G   C    Em   D
e|--3---3----3----2--------------------|
B|--3---3----3----3--------------------|
G|--0---0----0----2--------------------|
D|--0---2----2-------------------------|
A|--2---3----2-------------------------|
E|--3----------------------------------|


   Fmaj7     Gmaj7
e|---0---------3----------------------|
B|---1---------3----------------------|
G|---2---------0----------------------|
D|---3---------0----------------------|
A|-------------0----------------------|
E|-------------2----------------------|


capo 5

G C Em C

G
say you're sorry 
       C
that face of an angel
      Em                         C 
comes out just when you need it to 
G                             C
as I paced back and forth all this time 
         Em                   C
'cause I honestly believed in you 
Em
holding on 
    C
the days drag on 
       D
stupid girl, 
                                    
I should have known, I should have known 

 
          G                      Em
I'm not a princess, this ain't a fairytale 
            C
I'm not the one you'll sweep off her feet, 
 D
lead her up the stairwell 
           G                    Em
this ain't Hollywood, this is a small town, 
        C                            D
I was a dreamer before you went and let me down 
         Em          Gmaj7
now it's too late for you 
         C                       G
and your white horse, to come around 


G
maybe I was naive, 
C
got lost in your eyes 
    Em                     C
and never really had a chance 
G                          C     
my mistake I didn't know to be in love 
           Em                     C
you had to fight to have the upper hand 
      Em
I had so many dreams 
     C
about you and me 
      D
happy endings, now I know 

 
           G                     Em
I'm not a princess, this ain't a fairytale 
            C
I'm not the one you'll sweep off her feet, 
 D
lead her up the stairwell 
           G                    Em
this ain't Hollywood, this is a small town, 
        C                              D
I was a dreamer before you went and let me down 
         Em          Gmaj7
now it's too late for you 
         C                         G
and your white horse, to come around 


G Em C D

Em            Gmaj7       C
and there you are on your knees, 
G               D        C
begging for forgiveness, begging for me 
G            D            C          Fmaj7
just like I always wanted but I'm so sorry 


  sorry..
e|-------0--------0-------------------|
B|-----1---1------1-------------------|
G|---2---------0--0-------------------|
D|-3---------3----3-------------------|
A|------------------------------------|
E|------------------------------------|


   'cause I'm not your
   princess..       /  this ain't a ..   / i'm gonna find..    /actually treat..
e |------------------------------------------------3------3------------2-----|
B |------3-----3-------------3------3----------------------------------3-----|
G |--------------------------------------------------------------------2-----|
D |---------------------------------------------2------2------2--------------|
A |---2----2-----2-------2------2-----2------3------3------3-----------------|
E |-3----3-----3-------0------0------0---------------------------------------|


                   G                       Em
'cause I'm not your princess, this ain't a fairytale 
          C
I'm gonna find someone someday who might 
 D
actually treat me well
         G                      Em
this is a big world, that was a small town
            C                      D
there in my rearview mirror disappearing now
         Em           Gmaj7
and it's too late for you 
         C                            
and your white horse, 
        Em          Gmaj7        C                         G   
now its too late for you and your white horse, to catch me now 

Tap to rate this tab
# A B C D E F G H I J K L M N O P Q R S T U V W X Y Z