Song name
# A B C D E F G H I J K L M N O P Q R S T U V W X Y Z

Taylor Swift - Untouchable tab

-------------------------------------------------------------------------------
			    Untouchable - Taylor Swift
-------------------------------------------------------------------------------
Tabbed by: NICKY_2793
Email: nicky_2793@hotmail.com

Tuning: Standard capo on 3rd
Note: pluck the strings instead of strumming them only strum at end
INTRO

e|-0-0----3-3-----2-232---0-0----------------------------|
B|------------------------2-2--0-------------------------|
G|-------------------------------------------------------|
D|----------------0-0-----2-2----------------------------|play this x2
A|-------------------------------------------------------|
E|-0-0----3-3--------------------------------------------|

VERSE

e|-0-0----3-3-----2-2-----0-0-------------------------------|
B|------------------------2-2--0----------------------------|
G|----------------------------------------------------------|
D|----------------0-0-----2-2-------------------------------|play this x3
A|----------------------------------------------------------|
E|-0-0----3-3-----------------------------------------------|

Then

e|----3-3---3-3----0-0---0-0---------|
B|----3-3---3-3----2-2---2-2---------|
G|-----------------------------------|
D|----0-0---0-0----2-2---2-2---------|
A|-----------------------------------|
E|-----------------------------------|

Chorus:

e|--2-2--2-2---0-0--0-0---0-0---0-0---3-3---0-0----------|
B|--3-3--3-3---2-2--2-2---0-0---0-0---0-0---2-2----------|
G|-------------------------------------------------------|
D|--0-0--0-0---2-2--2-2---2-2---2-2---0-0---2-2----------|
A|-------------------------------------------------------|
E|-------------------------------------------------------|

repeat intro once

Verse 2

e|-0-0----3-3-----2-2-----0-0-------------------------------|
B|------------------------2-2--0----------------------------|
G|----------------------------------------------------------|
D|----------------0-0-----2-2-------------------------------|play this x2
A|----------------------------------------------------------|
E|-0-0----3-3-----------------------------------------------|

Then

e|----3-3---3-3----0-0---0-0---------|
B|----3-3---3-3----2-2---2-2---------|
G|-----------------------------------|
D|----0-0---0-0----2-2---2-2---------|
A|-----------------------------------|
E|-----------------------------------|

Chorus:

e|--2-2--2-2---0-0--0-0---0-0---0-0---3-3---0-0----------|
B|--3-3--3-3---2-2--2-2---0-0---0-0---0-0---2-2----------|
G|-------------------------------------------------------|x2
D|--0-0--0-0---2-2--2-2---2-2---2-2---0-0---2-2----------|
A|-------------------------------------------------------|
E|-------------------------------------------------------|

Bridge

e|-0-0----3-3-----2-2-----0-0----------------------------|
B|------------------------2-2----------------------------|
G|-------------------------------------------------------|
D|-2-2----0-0-----0-0-----2-2----------------------------|play this x2
A|-------------------------------------------------------|
E|-------------------------------------------------------|

Then

e|----3-3---3-3-------------|
B|----3-3---3-3-------------|
G|--------------------------|
D|----0-0---0-0-------------|
A|--------------------------|
E|--------------------------|

Chorus:

e|--2-2--2-2---0-0--0-0--s-0----2----0-----------|
B|--3-3--3-3---2-2--2-2--t-2----2----2-----------|
G|-----------------------r-2-x8-0-x8-2-x8--------|
D|--0-0--0-0---2-2--2-2--u-0----0----2-----------|
A|-----------------------m-0----2----0-----------|
E|-------------------------0----3----0-----------|


Strum chorus once more at the end in this sequence D,A,Em,G AND END ON D

| /  slide up
| \  slide down
| h  hammer-on
| p  pull-off
| ~  vibrato
| +  harmonic
| x  Mute note
===============================================================================
Tap to rate this tab
# A B C D E F G H I J K L M N O P Q R S T U V W X Y Z