Song name
# A B C D E F G H I J K L M N O P Q R S T U V W X Y Z

Taylor Swift - Untouchable tab

Capo 3


INTRO

   Em      G     D-Dsus4-D   A

e|-0-0----3-3-----2-2-3-2---0-0-------|
B|------------------------------------|
G|------------------------------------|
D|----------------0-0-----------------|x2
A|--------------------------0-0-------|
E|-0-0----3-3-------------------------|

VERSE

Untouchable like a distant..

   Em      G     D-Dsus4-D   A

e|-0-0----3-3-----2-2-3-2---0-0----------------------------|
B|---------------------------------------------------------|
G|---------------------------------------------------------|
D|----------------0-0--------------------------------------|x3
A|--------------------------0-0----------------------------|
E|-0-0----3-3----------------------------------------------|

Untouchable burning brighter...

      G     G       A

e|---3-3---3-3-----0-0---------------|
B|-----------------------------------|
G|-----------------------------------|
D|-----------------------------------|
A|-----------------0-0---------------|
E|---3-3---3-3-----------------------|

CHORUS

In the middle of...

     D    D     A    A    Em     Em    G     A

e|--2-2--2-2---0-0--0-0---0-0---0-0---3-3---0-0----------|
B|-------------------------------------------------------|
G|-------------------------------------------------------|
D|--0-0--0-0---------------------------------------------|
A|-------------0-0--0-0---------------------0-0----------|
E|------------------------0-0---0-0---3-3----------------|

REPEAT INTRO 

   Em      G     D-Dsus4-D   A

e|-0-0----3-3-----2-2-3-2---0-0-------|
B|------------------------------------|
G|------------------------------------|
D|----------------0-0-----------------|x1
A|--------------------------0-0-------|
E|-0-0----3-3-------------------------|

VERSE 2

It`s half full...

   Em      G     D-Dsus4-D   A

e|-0-0----3-3-----2-2-3-2---0-0----------------------------|
B|---------------------------------------------------------|
G|---------------------------------------------------------|
D|----------------0-0--------------------------------------|x2
A|--------------------------0-0----------------------------|
E|-0-0----3-3----------------------------------------------|

Untouchable burning brighter...

      G     G       A

e|---3-3---3-3-----0-0---------------|
B|-----------------------------------|
G|-----------------------------------|
D|-----------------------------------|
A|-----------------0-0---------------|
E|---3-3---3-3-----------------------|

CHORUS

In the middle of...

     D    D     A    A    Em     Em    G     A

e|--2-2--2-2---0-0--0-0---0-0---0-0---3-3---0-0----------|
B|-------------------------------------------------------|
G|-------------------------------------------------------|
D|--0-0--0-0---------------------------------------------|
A|-------------0-0--0-0---------------------0-0----------|
E|------------------------0-0---0-0---3-3----------------|

Oh, in the middle of...

     D    D     A    A    Em     Em    G    A

e|--2-2--2-2---0-0--0-0---0-0---0-0---3-3---0------------|
B|-------------------------------------------------------|
G|-------------------------------------------------------|
D|--0-0--0-0---------------------------------------------|
A|-------------0-0--0-0---------------------0------------|
E|------------------------0-0---0-0---3-3----------------|

BRIDGE

Oh, oh, oh, oh i`m caught up...

   Em      G     D-Dsus4-D   A

e|-0-0----3-3-----2-2-3-2---0-0-------|
B|------------------------------------|
G|------------------------------------|
D|----------------0-0-----------------|x2
A|--------------------------0-0-------|
E|-0-0----3-3-------------------------|

Untouchable burning brighter...

      G     G       A

e|---3-3---3-3-----0-0---------------|
B|-----------------------------------|
G|-----------------------------------|
D|-----------------------------------|
A|-----------------0-0---------------|
E|---3-3---3-3-----------------------|

CHORUS

In the middle of...

     D    D     A    A    

e|--2-2--2-2---0-0--0-0---|
B|------------------------|
G|------------------------|
D|--0-0--0-0--------------|
A|-------------0-0--0-0---|
E|------------------------|

Strum from now

             Em 
You gotta come on, come on

Say that we'll be together
 G
Come on, come on

Oh, ohwa, oh


        D
In the middle of the night

When I'm in this dream

It's like
  A
A million little stars

Spelling out your name
                 Em
You gotta, come on, come on

Say that we'll be together
 G
Come on, come on
                           D
Little taste of heaven
Tap to rate this tab
# A B C D E F G H I J K L M N O P Q R S T U V W X Y Z